Jesus Is Just Alright

Doobie Brothers

Tom: A
  

   Am                           D 
 Jesus is just all right with me 
 Am                          E79+ 
 Jesus is just all right, Oh yeah 
 Am                           D 
 Jesus is just all right with me 
 Am                  E79+  / F9  / E79+ 
 Jesus is just all right 

 Am                          D 
 I don't care what they may say 
 Am                        E79+ 
 I don't care what they may do 
 Am                           D 
 I don't care what they may say 
 Am                     E79+ 
 Jesus is just all right, oh yeah 
 Am                  E79+  / F9  / E79+ 
 Jesus is just all right 

 (D-C) 

 (E79+/F9/E79+) 

 Am                           D 
 Jesus is just all right with me 
 Am                        E79+ 
 Jesus is just all right, Oh yeah 
 Am                     D 
 Jesus is just all right with me 
 Am                  E79+  / F9  / E79+ 
 Jesus is just all right 

 Am                           D 
 I don't care what they may know 
 Am                        E79+ 
 I don't care where they may go 
 Am                           D 
 I don't care what they may know 
 Am                     E79+ 
 Jesus is just all right, oh yeah 

Am D 

 Am  D         Am  D 
 Jesus is my friend 
 Am  D            Am   D 
 Jesus, he's my friend 
 Am                 D 
 He took me by the hand 
 Am              D 
 Took me far from this land 
 Am    D           Am D 
 Jesus, he's my friend 

 Solo Am D  
(Riffs) 

 Am                          D 
 Jesus is just all right with me 
 Am                        E79+ 
 Jesus is just all right, Oh yeah 
 Am                           D 
 Jesus is just all right with me 
 Am                  E79+  / F9  / E79+ 
 Jesus is just all right 

 Am                     D 
 I don't care what they may say 
 Am                     E79+ 
 I don't care what they may do 
 Am                     D 
 I don't care what they may say 
 Am                     E79+ 
 Jesus is just all right, oh yeah 

(lead solos) 
(2:12) 
e|---------------------------------------|----------------------------------| 
B|---15b(17)----13h15p13~~----------|--------------------------------| 
G|-14-------------------14-----14~~------|----------------------------------| 
D|---------------------------------16\---|----------------------------------| 
A|---------------------------------------|----------------------------------| 
E|---------------------------------------|----------------------------------| 
  
(2:24)                                     (2:32)             (2:38) 
e|-------------------------------------------|--------------------|------| 
B|--8-7-5------------------------------------|--------------P.H.--|------| 
G|--------7-5---7-5--------------------------|-7b(8)r7-5---5-h-7~~|5h7p5-| 
D|------------7-------7-5---------------5/7~~|-----------7--------|------| 
A|------------------7-----7-6-5-3-0-5/7------|--------------------|------| 
E|-------------------------------------------|--------------------|------| 
  
(2:44) 
E|-------------------------------8--------10-------------------------------| 
B|--(9)r------7b(8)r7p5--------11b(13)---13b(15)------------------------| 
G|----------------------7--------------------------------------------------| 
D|-------------------------------------------------------------------------| 
A|-------------------------------------------------------------------------| 
E|-------------------------------------------------------------------------| 
  
(2:50) 
E|-12-------------------------------------------------------------------------| 
B|-15b(17)(15)b(17)-15b(17)r15~~-13h15p13-~~--13-15b(17)-----------------| 
G|-----------------------------------------14----14---------------------------| 
D|----------------------------------------------------------------------------| 
A|----------------------------------------------------------------------------| 
E|----------------------------------------------------------------------------| 
  
e|---------------------------------------------------------------------------| 
B|-15b(17)r15p13---(repeat---13--13~~--12h13p12~~-10~~--8p7------------| 
G|--------------14--6-times)-------------------------------------9p7\5-------| 
D|---------------------------------------------------------------------------| 
A|---------------------------------------------------------------------------| 
E|---------------------------------------------------------------------------| 
  
e|--------------------------------------------------------------------------| 
B|--------------------------------------------------------------------------| 
G|-7b(9)-----7b(9)r(7)b(9)---5~~~-\-----------------------------------------| 
D|-------------------------7------------------------------------------------| 
A|--------------------------------------------------------------------------| 
E|--------------------------------------------------------------------------| 
  
{Guitar Solo} 
{Guitar 1}(rhythm) 
  
e|----------------------------|--------------------------------| 
B|---------------------------o|--------------------------------| 
G|--------5~~~~-----------15--|--------------------------------| 
D|-----------------------times|-----------------5-4-0-2--------| 
A|--5-6-7-------5-6-7-3~~~~--o|------5-6-7--------------3------| 
E|----------------------------|--------------------------------| 
  
{Guitar 2} 
(lead) 
(3:39) 
e|E----------------------------------------8------8--10b(11)r10p8------------| 
B|-------------------------------------10~~------------------10~~--------| 
G|----------------0-7-5(9)-5-----/11--------------------------------------| 
D|------------6-7---------------7~-------------------------------------------| 
A|--5-6-7-6-7----------------------------------------------------------------| 
E|---------------------------------------------------------------------------| 
  
e|E-8------------------------------------------12-------------------------------| 
B|------10(13)(14)-14r(12)10---12b(14)(12)-10-------------------------| 
G|---11-------------------------------------------------------------------------| 
D|------------------------------------------------------------------------------| 
A|------------------------------------------------------------------------------| 
E|------------------------------------------------------------------------------| 
  
e|E-----------------------------------------------------------------------| 
B|-----13-15-15b(17)-13-------pb17r15p13-15-(15)b(17)-13b(14)-------------| 
G|-/14------------------14~~-------------------------------------14-12----| 
D|------------------------------------------------------------------------| 
A|------------------------------------------------------------------------| 
E|------------------------------------------------------------------------| 
  
e|E(17)-15b(17)-15b(17)~~--(16(17)-(16)(17)-(16)(17)~~~~--------------| 
B|--------------------------------------------------------------------------| 
G|--------------------------------------------------------------------------| 
D|--------------------------------------------------------------------------| 
A|--------------------------------------------------------------------------| 
E|--------------------------------------------------------------------------| 

Compartilhe esta música: novo

QR Code
Copiar