Lifes A Beach

Django Django

Tom: E
Intro 

E B A E B A E 

Riff (played through entire song) 

e|---------------------------------------------------------------------------| 
B|---------------------------------------------------------------------------| 
G|---------------------------------------------------------------------------| 
D|---------------------------------------------------------------------------| 
A|-7-7-7-7-7---5--2-2-2-2-2-2-----------3-5----------------------------------| 
E|----------------------------5-5-5-2-2--------------------------------------| 
E B That how you want to play it A E Break my heart and go home B A E Why'd you want to go do that, but we're not even in the waves E B That how you want to sing it A E Pop it out and let it flow B A E I think I've heard that song before it ends up as a book
Bridge 


e|-7-5-3------5-7-5-3----7-5-3-----------------------------------------------| 
B|-------7-8----------5--------7-8-7-5-8-7-5---------------------------------| 
G|---------------------------------------------------------------------------| 
D|---------------------------------------------------------------------------| 
A|---------------------------------------------------------------------------| 
E|---------------------------------------------------------------------------| 
Ahh... N.C. That how you want to see it The future's tellin' tall Tunnel vision, never listen, no we're never growin' old E B You're a good time killer A E Might even end up on your own B A E Overlook at Acapulco playing paper, scissors, stone
Solo (played on keyboard) 

e|---------------------------------------------------------------------------| 
B|---------------------------------------------------------------------------| 
G|---------------------------------------------------------------------------| 
D|----5---4-0---4-2--0-4-2-2--4-0--4-2---5-4-2---5--9--14--------------------| 
A|-7----7-----2----2------2-2-----2----2-------2--7--10--14------------------| 
E|--7------------------------------------------------------------------------| 
                                                            Ahh.. 
e|---------------------------------------------------------------------------| 
B|-8--8-7-7-5--8-7-5------4--7-5-4-----5-4-5---------------------------------| 
G|--9----7---4-------4-0---4------4---------4-5-3-4--------------------------| 
D|----------------------2---------------------------4-5-2------9-7-5---9-7-5-| 
A|----------------------------------------------------------7-------7------7-| 
E|---------------------------------------------------------------------------| 
E B You told the fortune teller A E The crystal ball is gonna show B A E Uri Geller's gonna tell or bend the truth so I don't know E B Sea has gotten something stirring A E On the currents down below B A E There's a beach out of reach, pack it up so we can go E B Crystal leaks start all over A E Switch it up and overhaul B A E Step in line, get in time, speed it up until we fall E B Paint a picture of a sunset A E Scratch the writing on the wall B A E Roll the credits on your edit play it back then watch it all

Compartilhe esta música: novo

QR Code
Copiar