Solo Existes Tú

Diego Gonzalez

Tom: G
 
TOCAR ABAFADO (MENOS REFÃO)  
  
  
E||-----------------||  
B||-----------------||  
G||-------5----7----||  
D||--5----5----7----||  
A||--5----3----5----||  
E||--3--------------||
Te veo al llegar y me pones a temblar Te voy a conquistar, el miedo no me detendrá... Andarás con alguien más o será que me batearás, Me acerco sin pensar y al verte me enloquezco más.
G C Quizá parezca acelerado G C Pero aquí estoy enamorado G C Será que llegaré a tu lado D C Para mí sólo existes tú
E||-----------------||  
B||-----------------||  
G||-------5----7----||  
D||--5----5----7----||  
A||--5----3----5----||  
E||--3--------------||
Te empiezo a platicar y todo parece girar Tu comienzas a bailar, yo seinto que voy a flotar. Y cuando te hago sonreír, tengo un motivo para vivir En tu mirada puedo ver la magia que hay dentro de ti. (Refrão) G C Quizá parezca acelerado G C Pero aquí estoy enamorado G C Será que llegaré a tu lado D C Para mí sólo existes tú El mundo se detiene, sólo existes tú...

Compartilhe esta música: novo

QR Code
Copiar