1x0 Eu

Dibob

Tom: B
 
Intro: B F# G# E 3x 
 
na 2a vez entra guita solo 
G|--4-4-6-8-6--6-6-8-9-8--8-8-6-4-4--4-4-3-3-4- 
D|--------------------------------------------- 
A|--2-2-4-6-4--4-4-6-7-6--6-6-4-2-2--2-2-1-1-2- 
 
G|--4-4-6-8-6--6-9-8-6-8--8-8-6-4-4--4-4-3-3-4- 
D|--------------------------------------------- 
A|--2-2-4-6-4--4-7-6-4-6--6-6-4-2-2--2-2-1-1-2-
B F# G# E 2x vc me perdeu naum percebeu q naum deu valor pra mim agora eh tarde demais ja naum te quero + vai ter q aprender a viver assim G# E pois quando me tinha naum soube cuidar G# D# E ganhava sempre no seu jogo de amar B F# E e agora vem correndo me pedindo pra voltar F# naum vai dar
base: = à do refrão ( B  F# E  F# ) 2x 
solo:  
E|----------------------------------------------------------------------------- 
B|----------------------------------------------------------------------------- 
G|------------11----------------11------------------------------9-11----------- 
D|-9--9-11b13----11-11--9-11b13----11-9--9----9-11-11--9-11-13----------------- 
A|-----------------------------------------11---------------------------------- 
E|----------------------------------------------------------------------------- 
 
E|------------------------------------------------------------------------------ 
B|--------------------------------------------------------------------------12~- 
G|------------11-------===------11-------------------------------9-11-13-11----- 
D|-9--9-11b13----11-11--9-11b13----11-9--9----9-11-11~11-9-11-13---------------- 
A|--------------------------=--------------11----------------------------------- 
E|------------------------------------------------------------------------------ 
B F# G# E 2x o jogo inverteu, vc se perdeu e o seu filme queimou mas vai ser bom pra vc vc vai aprender a dar mais valor pra quem te deu G# E pois quando me tinha naum soube cuidar G# D# E ganhava sempre no seu jogo de amar B F# E e agora vem correndo me pedindo pra voltar F# naum vai dar B F# E F# c abusou do meu amor e ta pedindo pra voltar | Refrão 2x e eu to dizendo naum vai dar | B F# G# E G|--4-4-6-8-6--6-6-8-9-8--8-8-6-4-4--4-4-3-3-4 G|--4-4-6-8-6--6-9-8-6-8--8-8-6-4-4--4-4-3-3-4 G# E pois quando me tinha naum soube cuidar G# D# E ganhava sempre no seu jogo de amar B F# E e agora vem correndo me pedindo pra voltar F# naum vai dar B F# E F# vc abusou do meu amor e ta pedindo pra voltar | Refrão 6x e eu to dizendo naum vai dar | _______________________________________________________ Contribuição: Rodrigo Diogo da Silva (Pão)([email protected])

Compartilhe esta música: novo

QR Code
Copiar