Preciso de Ti

Diante do Trono

Tom: A
INTRO:      
      
      e|-------------------------------------|  
      B|-------------------------------------|   
      G|-------------------------------------|  
      D|-------------------------------------|  
      A|---0-2-0-----------------------------|  
      E|-0-------2-3-------------------------|

 G D/F# A9 E  

      e|-------------------------------------|  
      B|-------------------------------------|   
      G|-------------------------------------|  
      D|-------------------------------------|  
      A|-0-2-0-------------------------------|  
      E|---------2-3-------------------------|
G D/F# A9 E A F#m7 Preciso de Ti preciso do teu perdão A F#m7 Preciso de Ti quebranta meu coração D Bm7 F#m7 Como a corça anseia por água, assim tenho sede C#m7 D Bm7 E4 E7 Como terra seca, assim é minh'alma preciso de Ti F#m C#m D A/C# Bm7 Distante de Ti, Senhor, não posso viver A/E E Não vale a pena existir C#m7 D A/C# Bm7 Escuta o meu clamor, mais que o ar que eu respiro Bm7/A E/G# Bm7 A9 E Preciso de Ti F#m C#m D A/C# Bm7 Distante de Ti, Senhor, não posso viver A/E E Não vale a pena existir C#m7 D A/C# Bm7 Escuta o meu clamor, mais que o ar que eu respiro Bm7/A G9 D/F# A9 E Preciso de Ti A F#m Não posso esquecer o que fizeste por mim A F#m Como alto é o céu, tua misericórdia é sem fim C#m7/11 D Bm7 F#m7 Como um pai se compadece dos filhos assim Tu me amas C#m7 D Bm7 Bm/A G D/F# A9 E Afasta as minhas transgressões preciso de Ti F#m C#m D A/C# Bm7 Distante de Ti, Senhor, não posso viver A/E E Não vale a pena existir C#m7 D A/C# Bm7 Escuta o meu clamor, mais que o ar que eu respiro Bm7/A E/G# Bm7 A9 E Preciso de Ti (cont. Preciso de Ti – M.D.T.) F#m C#m D A/C# Bm7 Distante de Ti, Senhor, não posso viver A/E E Não vale a pena existir C#m7 D A/C# Bm7 Escuta o meu clamor, mais que o ar que eu respiro Bm7/A G9 D/F# A9 E Preciso de Ti C#7 D7M E as lutas vêm tentando me afastar de Ti F#m7/9 C#m7 D7M Frieza e escuridão procuram me cegar Bm7 C#m7 F#m E D Mas eu não vou desistir: ajuda-me, Senhor! Bm7 C#m7 G9 A/G Eu quero permanecer contigo até o fim Interlúdio: || G2 | A/G | G2 | A/G | F7+ | G/F | E4 | E7 || F#m C#m D A/C# Bm7 Distante de Ti, Senhor, não posso viver A/E E Não vale a pena existir C#m7 D A/C# Bm7 Escuta o meu clamor, mais que o ar que eu respiro Bm7/A E/G# Bm7 A9 E Preciso de Ti F#m C#m D A/C# Bm7 Distante de Ti, Senhor, não posso viver A/E E Não vale a pena existir C#m7 D A/C# Bm7 Escuta o meu clamor, mais que o ar que eu respiro Bm7/A G9 D/F# A9 E Preciso de Ti G2 D/F# Preciso de Ti F7+ G2 Preciso de Ti A G2 Preciso de Ti D/F# F7+ Preciso de Ti A9 Preciso de Ti...

Compartilhe esta música: novo

QR Code
Copiar