Never Seen Such Good Things

Devendra Banhart

Tom: D
INTRO: 
   D                D   Bm                      D       Bm 
e----------------------------------------------------------| 
B----------------------------------------------------------| 
G-4-4-2-2---------------4-4-2-2--------------4-6-7---7-6-4-| 
D----------4-4-2-2-4-------------4-4-2-2-------------------| 
A-----------------------------------------2----------------| 
E----------------------------------------------------------| 

D Never seen such good things go so wrong Bm D Bm D And everywhere we turn they're playing our song D Should have known someone so much like me Bm D Bm D Would give me hell and send me to my knees G Love, yer a strange fella D Sure leave yer mark indelibly G Love, yer a strange fella A D Won't you leave yer mark on me D If we ever make sweet love again Bm I'm sure that it will be quite disgusting D Bm Race to the end. Race to the end D The memory of a ceremony so Bm D Bm D Empty, Bitter, boring and hollow G Love, yer a strange fella D Sure leave yer mark indelibly G May as well be forever A Love won't you come and punish me
SOLO: 
  D 
e-5-7-5-----------5---5-7-5--------------| 
B--------5h7-5-7--------------5h7-5--5-7-| 
G----------------------------------------| 
D----------------------------------------| 
A----------------------------------------| 
E----------------------------------------| 
                                  Bm 
e-5-7-5-----------5---5-7-5------------------| 
B--------5h7-5-7--------------5h7-5--2h3p2---| 
G------------------------------------------4-| 
D--------------------------------------------| 
A--------------------------------------------| 
E--------------------------------------------| 

D Bm Sad lady you win D Sad lady you win D Bm Sad lady you win D Sad lady you win D Bm Sad lady you win D Sad lady you win D Bm Sad lady you win D Sad lady you win
END (4x): 
e---------------------------------| 
B-----3--3-5-5-7------3--3--------| 
G-2h4-------------2h4------4-4-3--| 
D---------------------------------| 
A---------------------------------| 
E---------------------------------|

Compartilhe esta música: novo

QR Code
Copiar