Fidelidade

Danielli Cristina

Tom: D#
		 
Intro 2x: Cm  Ab  Eb  Bb 

              Cm Dm Eb F G Bb C Dm Eb F Eb Dm 
E|-----------------6--8--10--11--13--15--18--20~~~~-------|| 
B|------------6--8----------------------------------------|| 
G|---5--7--8----------------------------------------------|| 
D|--------------------------------------------------------|| 
A|--------------------------------------------------------|| 
E|--------------------------------------------------------|| 

Cm Ab Oh! Deus de Israel eu sei Bb Fm Cm Que não vim a este mundo pra adorar outro Rei Ab Os leões estão rugindo sem parar Bb Meu louvor incomodou Fm Gm Cm A todos que estão contra Ti oh! Jeová
   
              Cm Dm Eb F G Bb C Dm Eb F Eb Dm 
E|-----------------6--8--10--11--13--15--18--20~~~~-------|| 
B|------------6--8----------------------------------------|| 
G|---5--7--8----------------------------------------------|| 
D|--------------------------------------------------------|| 
A|--------------------------------------------------------|| 
E|--------------------------------------------------------|| 

Parte 2: Cm Ab Nada pode intercalar o louvor do meu coração Bb Fm Gm Cm Dos manjares eu abro mão os palácios não quero, não Eb Ab Eis me aqui como Daniel com os olhos focados no céu Fm Gm Com o risco de morrer pois o que importa é Lhe obedecer
     G Fm Eb Dm Cm Bb Cm 
E|------------------------|| 
B|------------------------|| 
G|------------------------|| 
D|---5--3-----------------|| 
A|---------6--5--3/5--3---|| 
E|------------------------|| 
Cm Ab Eb Senhor não vou dividir minha adoração Bb Gm Cm Exclusivo é o meu coração Ab Eb Vivo só pra Ti não abro mão do céu Bb Gm Cm Até diante da morte prefiro ser fiel Solo: ( Cm Ab Eb Bb ) Parte 2: Bb Gm Cm Fm Gm Ab Gm Até diante da morte prefiro ser fiel Cm Aquele que habita no esconderijo do Altíssimo Bb/D Á sombra do Onipotente descansará Fm Direi do Senhor Ele é o meu Deus Gm O meu refúgio a minha fortaleza Cm Ele me livra do laço do passarinheiro Bb/D Fm E da peste perniciosa Ele me cobre com Suas penas Gm E debaixo de Suas asas estarei seguro Ab Fm Eu não temo o espanto noturno nem seta que voe de dia Cm Nem peste que ande na escuridão Bb Nem mortandade que assole ao meio dia Fm Não importa quantos caiam do meu lado Bb Eb Direita, esquerda eu sou protegido Ab Se eu for fiel eu moverei o céu Bb Gm Cm Ele envia anjos para me guardar. Cm Ab Eb Senhor não vou dividir minha adoração Bb Gm Cm Exclusivo é o meu coração Ab Eb Vivo só pra Ti não abro mão do céu Bb Gm Cm Até diante da morte prefiro ser fiel ( Cm Ab Eb Bb Gm Bb Cm )

Compartilhe esta música: novo

QR Code
Copiar