A Ponte

Cristo Herói

Tom: C#m
Intro: C#m  C#m/B  A  B 

                     C#m  E  F#  A F# (2x) 
E|--4---------------| 
B|----2-4---4-2-----| 
G|--------2---------| 
D|------------------| 
A|------------------| 
E|------------------| 

C#m E F# A F# Quantos passos preciso para chegar ao outro lado da ponte? C#m E F# A F# E o que nos liga é o desejo profundo de alcançar-Te mais C#m E F# A F# Essa alegria que me move e me dá forças é a certeza do amor que vive em mim C#m E F# A F# B Em cada olhar de cada face que eu vejo é Tua face que eu vejo e posso sentir
C#m E F# Seguirei em Tua Direção, não perco a visão A B Sua paixão despertou meu coração C#m E F# Não desisto em frente o prêmio está, eu quero Te encontrar A B E prostrar-me, e prostrar-me em Teu altar
       C#m                                                 B 
e|--------------------------------------------------------------------| 
B|--4-4-7-7-4-4-6-6---4-7-7-4-6-----4-4-7-7-4-4-6-6-----4-4--4-4------| 
G|------------------------------4-6---------------------6-6--6-6------| 
D|------------------------------------------------------6-6--6-6------| 
A|--------------------------------------------------------------------| 
E|--------------------------------------------------------------------| 

C#m E F# A F# Tantas palavras que se formaram de par em par nos ligaram mais C#m E F# A F# E muitos atos mal pensados podem até causar uma grande prisão... C#m E F# A F# A liberdade é uma escolha importante que nos fará alcançar o impossível C#m E F# A F# B A minha fé está firmada em um Deus grande, que faz de mim um verdadeiro vencedor!
Refrão 

Solo( repete 2x a tab abaixo) 

           C#m (2x)               E (2x)                        F# (2x) 
E|--------------------------------------------------------------------------------------------| 
B|--9-9-9------11-11-11-11----9-9-9------11-11-11-11--------9-9-9------11-11-11-11------------| 
G|--0-0-0------0--0--0--0-----0-0-0------0--0--0--0---------0-0-0------0--0--0--0-------------| 
D|--11-11-11---13-13-13-13----11-11-11---13-13-13-13--------11-11-11---13-13-13-13------------| 
A|--------------------------------------------------------------------------------------------| 
E|--------------------------------------------------------------------------------------------| 

      A                            B 
E|------------------------------------------------------------------| 
B|--9-9-9------14-14-14-14------9-9-9------14-14-14-14--------------| 
G|--0-0-0------0--0--0--0-------0-0-0------0--0--0--0---------------| 
D|--11-11-11---16-16-16-16------11-11-11---16-16-16-16--------------| 
A|------------------------------------------------------------------| 
E|------------------------------------------------------------------| 

C#m E F# Seguirei em Tua Direção, não perco a visão A B Sua paixão despertou meu coração C#m E F# Não desisto em frente o prêmio está, eu quero Te encontrar A B C#m E F# E prostrar-me, e prostrar-me em Teu altar A B C#m E F# A B E prostrar-me, e prostrar-me em Teu altar
                     C#m 
E|--4---------------| 
B|----2-4---4-2-----| 
G|--------2---------| 
D|------------------| 
A|------------------| 
E|------------------|

Compartilhe esta música: novo

QR Code
Copiar