Autoridade E Poder

Corinhos Evangélicos

Tom: G
Intro: G  Em7  C Am D  G  Em7  C Am D 

e|--------------------------------------| 
B|--------------------------------------| 
G|----------12--14--12--14--14--12--12--| 
D|--12--14------------------------------| 
A|--------------------------------------| 
E|--------------------------------------| 

e|--------------------------------| 
B|--------------------------------| 
G|--------------------------------| 
D|----12--14--12--14--14--12--12--| 
A|14------------------------------| 
E|--------------------------------| 

e|--------------------------------| 
B|--------------------------------| 
G|--------------------------------| 
D|----12--14--12--14--14--12--12--| 
A|14------------------------------| 
E|--------------------------------| 

e|--------------------------------| 
B|--------------------------------| 
G|---------12---------------------| 
D|----12-------14--12--11---------| 
A|14-----------------------14--12-| 
E|--------------------------------| 

G Em Os que confiam no Senhor , são como os montes de Sião C Am D Que não se abalam , mas permanecem para sempre G Em Como em volta de Jerusalém , estão os montes C Am D Assim o Senhor , em volta do seu povo G Em Autoridade e poder , domínio em suas mãos C Am D Pois o Senhor é Deus , o Senhor é Rei dos povos G Em Cale-se diante dele a terra, dobrem os joelhos ergam as mãos C Am D Pois o Senhor é Deus o Senhor é Rei dos povos Final: G Em C Am D G Em C Am D

Compartilhe esta música: novo

QR Code
Copiar