Tom: A
 Intro:  A   D9   A  D9 
A 
 Eis me aqui na presença 
D9 
 A pensar no que tens feito em mim 
A 
 Te busquei, te encontrei 
D9 
 Só pra ouvir tua doce voz 
   F#m       E       D9 
Jesus, Santo, Justo        
         e|--------------------------------------------------------------------- 
B|--10-----10----------10-------10--------9--------9------9---------9-------7------7--------7---------7-------9------9------9-----9- 
G|--------------------------------------------------------------------- 
D|------11--------11----------11-------11------9----------9-------9------9--------7-------7------7--------7--------9-----9------9------9---------- 
A|--------------------------------------------------------------------- 
E|--------------------------------------------------------------------- 
E Sempre és fiel F#m E D9 Salva, cura, redime o meu ser
A Eu te adorarei por quem tu és D9 Eu te adorarei por quem tu és F#m E Eu te adorarei por quem tu és D Jesus
(repete desde o início) (solo)
 
E |------------------------------------------------------------------------- 
B |---15-15- 15--14 14 14. 12 12 12---10 10-10-----15-15---15----14--14---14-12--12--12--10-10--10--10--10-10--9-9-----------------------| 
G |---------------------------------------------------------------------| 
D |------------------------------------------------------------------------| 
A |------------------------------------------------------------------------| 
E |------------------------------------------------------------------------| 

E |-----------9-----12---11----------------| 
B |----10--12--10-----10----9--10----------| 
G |--9----------------------------9--------| 
D |---------------------------------12-11--| 
A |----------------------------------------| 
E |----------------------------------------| 
A F#m Seguro estou, confio em ti E D9 Sem fim é o teu amor

Compartilhe esta música: novo

QR Code
Copiar