Thunder

Coma Cinema

Capotraste na 3ª casa
 

Intro 
e|--------------------------| 
B|-----3--------3--------3*-| 
G|--------0--------0--------|  x4  
D|--------------------------|  
A|--0--------0--------0-----|  
E|--------------------------|  

e|--------------------------------------------------|      
B|-----0----------0----------0----------0-----------|      
G|--------0----------0----------0----------0--------| x1   
D|-----------0----------0----------0--0--------0----|       
A|--------------------------------------------------|      
E|--0----------2----------3-------------------------|  
     
e|-------------------------|        
B|-----0--------0--------0-|        
G|--------0--------0-------| x4  
D|-------------------------|        
A|--3--------3--------3----|        
E|-------------------------|        

e|--------------------------| 
B|-----3--------3--------3*-| 
G|--------0--------0--------|  x4  
D|--------------------------|  
A|--0--------0--------0-----|  
E|--------------------------|  
Can you face me? 

e|--------------------------------------------------|      
B|-----0----------0----------0----------0-----------|      
G|--------0----------0----------0----------0--------| x1   
D|-----------0----------0----------0--0--------0----|       
A|--------------------------------------------------|      
E|--0----------2----------3-------------------------|  
I already know the answer 

e|-------------------------|         
B|-----0--------0--------0-|        
G|--------0--------0-------| x4  
D|-------------------------|           
A|--3--------3--------3----|         
E|-------------------------|         

e|--------------------------| 
B|-----3--------3--------3*-| 
G|--------0--------0--------|  x4  
D|--------------------------|  
A|--0--------0--------0-----|  
E|--------------------------|  
If it's over  

e|--------------------------------------------------|      
B|-----0----------0----------0----------0-----------|      
G|--------0----------0----------0----------0--------| x1   
D|-----------0----------0----------0--0--------0----|       
A|--------------------------------------------------|      
E|--0----------2----------3-------------------------|  
Let's go our separate ways 

e|-------------------------|        
B|-----0--------0--------0-|         
G|--------0--------0-------| x4  
D|-------------------------|         
A|--3--------3--------3----|        
E|-------------------------|         

e|--------------------------| 
B|-----3--------3--------3*-| 
G|--------0--------0--------|  x4  
D|--------------------------|  
A|--0--------0--------0-----|  
E|--------------------------|  
When the thunder 

e|--------------------------------------------------|      
B|-----0----------0----------0----------0-----------|      
G|--------0----------0----------0----------0--------| x1   
D|-----------0----------0----------0--0--------0----|       
A|--------------------------------------------------|      
E|--0----------2----------3-------------------------|  
Calls to me then I'll come over  

e|-------------------------|        
B|-----0--------0--------0-|         
G|--------0--------0-------| x4 
D|-------------------------|        
A|--3--------3--------3----|         
E|-------------------------|         

e|--------------------------| 
B|-----3--------3--------3*-| 
G|--------0--------0--------|  x4  
D|--------------------------|  
A|--0--------0--------0-----|  
E|--------------------------|  
I am waiting 

e|--------------------------------------------------|      
B|-----0----------0----------0----------0-----------|      
G|--------0----------0----------0----------0--------| x1   
D|-----------0----------0----------0--0--------0----|       
A|--------------------------------------------------|      
E|--0----------2----------3-------------------------|  
With an open mind 

e|-------------------------|        
B|-----0--------0--------0-|         
G|--------0--------0-------| x4  
D|-------------------------|         
A|--3--------3--------3----|         
E|-------------------------|        

e|--------------------------| 
B|-----3--------3--------3*-| 
G|--------0--------0--------|  x4  
D|--------------------------|  
A|--0--------0--------0-----|  
E|--------------------------|  
I am drawn to  

e|--------------------------------------------------|      
B|-----0----------0----------0----------0-----------|      
G|--------0----------0----------0----------0--------| x1   
D|-----------0----------0----------0--0--------0----|       
A|--------------------------------------------------|      
E|--0----------2----------3-------------------------|  
The  mirror in a dull revulsion 

e|-------------------------|        
B|-----0--------0--------0-|         
G|--------0--------0-------| x4  
D|-------------------------|         
A|--3--------3--------3----|         
E|-------------------------|        

e|--------------------------| 
B|-----3--------3--------3*-| 
G|--------0--------0--------|  x4  
D|--------------------------|  
A|--0--------0--------0-----|  
E|--------------------------|  
I forgive you, 

e|--------------------------------------------------|      
B|-----0----------0----------0----------0-----------|      
G|--------0----------0----------0----------0--------| x1   
D|-----------0----------0----------0--0--------0----|       
A|--------------------------------------------------|      
E|--0----------2----------3-------------------------|  
But I do not know why 

e|-------------------------|        
B|-----0--------0--------0-|        
G|--------0--------0-------| x4   
D|-------------------------|        
A|--3--------3--------3----|         
E|-------------------------|         

Outro 
e|--------------------------| 
B|-----3--------3--------3*-| 
G|--------0--------0--------|  x4  
D|--------------------------|  
A|--0--------0--------0-----|  
E|--------------------------|  

e|--------------------------------------------------|      
B|-----0----------0----------0----------0-----------|      
G|--------0----------0----------0----------0--------| x1   
D|-----------0----------0----------0--0--------0----|       
A|--------------------------------------------------|      
E|--0----------2----------3-------------------------|  

e|-----| 
B|-----| 
G|-----|   
D|--0--|   
A|--3--| 
E|-----| 

************************************ 

*Play as 0 the fourth time 

************************************ 

Compartilhe esta música: novo

QR Code
Copiar