Hurt Everything

Coma Cinema

Tom: C
Intro 
  C     C/A    Am 
e|------------------------------------| 
B|---1----1------1----1---1--1--1-----| 
G|-----0----0------0---0---2--2--2-2--| 
D|-------2-----------0------2-----2-0-| 
A|-3-----------2---------0-----0------| 
E|------------------------------------| 

   F      G  
e|-----------------------------------| 
B|--1--1----0--0---------------------| 
G|---2--2----0--0--------------------| 
D|----3-------0----------------------| 
A|-----------------------------------| 
E|-1-------3-------------------------| 
Verse C sleep becomes C/Am a shelter from F C a memory half dead C C/A the house is full of spiders now
e|--------------| 
B|----1---0-----| 
G|-----2----0---| 
D|--------------| 
A|--------------| 
E|--1---3-------| 
F G C there's a rage inside my head Am G obsession wears your wedding gown C F down to a thread Am G and this heartless wilderness C F held you as you bled

Compartilhe esta música: novo

QR Code
Copiar