Estúpido Cupido (stupid Cupid)

Cleide Alves

Tom: F
		 

(apenas Vocal) 

Oh! Cupido, Vê Se Deixa Em Paz, 
F7 
Meu Coração que Já não pode amar 
Bb 
Eu Amei Há Muito Tempo Atrás, 
F7 
Já Cansei De Tanto Soluçar 

C7        Bb7 
Hei, Hei, É O Fim, 
(apenas Vocal) 
Oh oh, Cupido vá Longe De Mim 

F7 
Eu Dei Meu Coração A Um Belo Rapaz 
F7 
Que Prometeu Me Amar E Me Fazer Feliz 
Bb 
Porém, Ele Me Passou Pra Trás, 
F7 
Meu Beijo Recusou E O Meu Amor Não Quis. 

C7        Bb7 
Hei, Hei, É O Fim, 
(apenas Vocal) 
Oh oh, Cupido vá Longe De Mim. 

Bb 
Eu Vi Um Coração 
F7 
Cansado De Chorar, 
Bb 
A Flecha Do Amor 
     G7           C7 
Só Traz Angústia E A Dor 

F7 
Mas, Seu Cupido o Meu Coração 
F7 
Não Quer Saber De Mais Uma Paixão 
Bb 
Por Favor, Vê Se Me Deixa Em Paz, 
F7 
Meu Pobre Coração Já Não Agüenta Mais 

C7        Bb7 
Hei, Hei, É O Fim, 
(apenas Vocal) 
Oh oh, Cupido vá Longe De Mim 

(solo de saxofone) 

(apenas Vocal) 
Mas, Seu Cupido o Meu Coração 
F7 
Não Quer Saber De Mais Uma Paixão 
Bb 
Por Favor, Vê Se Me Deixa Em Paz, 
F7 
Meu Pobre Coração Já Não Agüenta Mais 

C7      Bb7 
Hei,Hei,É O Fim, 
(apenas Vocal) 
Oh oh Cupido Vá Longe De Mim(bis) 

(os acordes tocados na música podem equivaler a esses riffs) 


    F7                    Bb 
E|-----------------|   e|-----------------| 
B|-----------------|   B|-----------------| 
G|-----------------|2  G|-------------0---|2 
D|-------------0---|X  D|-----0-0-3-3---3-|X 
A|-----0-0-3-3---3-|   A|-1-1-------------| 
E|-1-1-------------|   E|-----------------| 





    C7                     Bb7 
E|-----------------|   e|----------------| 
B|-----------------|   B|----------------| 
G|---------0-0-2-0-|1  G|----------------|1 
D|-----2-2---------|X  D|-----0-0-3-3/7b-|X 
A|-3-3-------------|   A|-1-1------------| 
E|-----------------|   E|----------------|

Compartilhe esta música: novo

QR Code
Copiar