Amor A Perder De Vista

Clã Brasil

Tom: Bb
Intro: Bb  Am  Gm7  Cm  F7  Bb  Am  Gm7  C7  F  C7 
E|----------------------------------|-------------------------------------| 
B|--10-8-10-8-10-8-10-8-10-8-----8--|-------------------------------------| 
G|---------------------------10-9---|--10-12-10-12-10-12-10-12-10-9---10--| 
D|----------------------------------|-------------------------------12----| 
A|----------------------------------|-------------------------------------| 
E|----------------------------------|-------------------------------------| 

E|---------------------------------------|----------------------------------| 
B|---------------------------------------|--10-8-10-8-10-8-10-8-10-8-----8--| 
G|---------------------------------------|---------------------------10-9---| 
D|--12-15-12-15-14-12-12-15-14-12--------|----------------------------------| 
A|--------------------------------13-15--|----------------------------------| 
E|---------------------------------------|----------------------------------| 

E|-------------------------------------|---------------------------------------| 
B|-------------------------------------|---------------------------------------| 
G|--10-12-10-12-10-12-10-12-10-9---10--|--------------------------------12-----| 
D|-------------------------------12----|--12-15-12-15-12-15-12-12-14-15----15--| 
A|-------------------------------------|---------------------------------------| 
E|-------------------------------------|---------------------------------------| 

E|------------------------| 
B|------------------------| 
G|------------------------| 
D|--15-14-12--------------| 
A|-----------12-13-14-15--| 
E|------------------------| 
F É, foi maravilhoso te encontrar Gm Rolou que nem corda e caçuá C Fizemos um bom baião de dois C7 F F C7 Sem compromisso pra depois F Foi fugaz feito chuva de verão Gm Molhou, fecundou meu coração C Semente brotou e deu roseira C7 F F7 De paixão mais verdadeira Bb É, ficar uma vez não satisfaz Am O meu sentimento pede mais Gm7 Aqueles momentos de prazer Cm F7 Me marcaram pra valer Bb Já usei celular, computador Am Mandei mil mensagens de amor Gm Pergunto aos amigos por você C7 F7 Deixa tudo e vem me ver (Tô amando, tô amando) Bb Am Louca por você (Tô amando, tô amando) Gm Vem logo me ver Cm F7 Tô cansada de sofrer (Tô amando, tô amando) Bb Am Louca por você (Tô amando, tô amando) Gm Vem me pertencer C7 F F7 Sem você não sei viver Bb Am Gm7 Pá Pá pa ran Pá Pá pa ran Cm F7 Tô cansada de sofrer Bb Am Gm7 Pá Pá pa ran Pá Pá pa ran C7 F F7 Sem você não sei viver Final Bb Am Gm7 Cm F7 Bb Am Gm7 C7 F C7

Compartilhe esta música: novo

QR Code
Copiar