Louca De Saudedes

Chuzinho

Tom: F
F9/C                 G 
Se uma canção me lembrar 
          F9/C         C 
Troque o CD, não ouça mais 
 F9/C                  G 
Se um perfume me recordar 
           F9/C           C   G 
Troque de marca, não use mais 


Parte 1 de 4 

 
    F9/C               G 
E|-----x---------x--------x-----x-----------| 
B|---1-x---1---1-x------3-x-3-3-x-----------| 
G|---0-x---0h2-0-x-0----0-x-0-0-x-0---------| 
D|---3-x---3---3-x-0----0-x-0-0-x-0---------| 
A|-3---x-3-------x--------x-----x-----------| 
E|-----x---------x----3---x-3---x-----------| 
Parte 2 de 4
 
    F9/C              C 
E|-----x---------x-------x------------------| 
B|---1-x---1---1-x-----1-x------------------| 
G|---0-x---0h2-0-x-0---0-x-------0----------| 
D|---3-x---3---3-x-0---2-x---0h2---0h2-0----| 
A|-3---x-3-------x---3---x-3-3-----3--------| 
E|-----x---------x-------x------------------| 
Parte 3 de 4
 
    F9/C               G 
E|-----x---------x--------x-----x-----------| 
B|---1-x---1---1-x------3-x-3-3-x-----------| 
G|---0-x---0h2-0-x-0----0-x-0-0-x-0---------| 
D|---3-x---3---3-x-0----0-x-0-0-x-0---------| 
A|-3---x-3-------x--------x-----x-----------| 
E|-----x---------x----3---x-3---x-----------| 
Parte 4 de 4
 
    F9/C              C       G 
E|-----x---------x-------x------------------| 
B|---1-x---1---1-x-----1-x------------------| 
G|---0-x---0h2-0-x-0---0-x-0-----0----------| 
D|---3-x---3---3-x-0---2-x-0---0---0--------| 
A|-3---x-3-------x---3---x------------------| 
E|-----x---------x-------x---3--------------| 
Pré-refrão: F9/C C Já que me trocou por um outro alguém G F9/C G Am7 G/B Substituir é o que te convém Parte 1 de 2
 
    F9/C              C       G 
E|-----x---------x-------x-------x----------| 
B|---1-x---1---1-x-----1-x-----3-x----------| 
G|---0-x---0h2-2-x-0---0-x-0---0-x-0--------| 
D|---3-x---3---3-x-0---3-x-0---0-x-0--------| 
A|-3---x-3-------x---3---x-------x----------| 
E|-----x---------x-------x---3---x----------| 
Parte 2 de 2
 
    F9/C             G              Am7 G/B 
E|-----x---------x-------x-----x------------| 
B|---1-x---1---1-x-----3-x-3-3-x-0--1--3----| 
G|---0-x---0h2-2-x-0---0-x-0-0-x-0--0--0----| 
D|---3-x---3---3-x-0---0-x-0-0-x-0----------| 
A|-3---x-3-------x-------x-----x----0--2-5\-| 
E|-----x---------x---3---x-3---x-3----------| 
C Em7 Mas quando o coração não me enxergar F9/C Vai te deixar louca de saudade Fm/C Louca de saudade C Em7 O coração vai me desejar F9/C E te deixar louca de saudade Fm/C Louca de saudade Dm Eu quero ver então G Se vai poder trocar de coração
Parte 1 de 3
 
    C             Em7 
E|-----x-----x--------x-----x---------------| 
B|---1-x-1-1-x------3-x-3-3-x---------------| 
G|---0-x-0-0-x-0----0-x-0-0-x-0-------------| 
D|---2-x-2-2-x-0----0-x-0-0-x-0-------------| 
A|-3---x-3---x--------x-----x---------------| 
E|-----x-----x----0---x-0---x---------------| 
Parte 2 de 3
 
   F9/C           Fm/C 
E|-----x-----x--------x-----x---------------| 
B|---1-x-1-1-x------1-x-1-1-x---------------| 
G|---0-x-0-0-x-0----1-x-1-1-x-0-------------| 
D|---3-x-3-3-x-0----3-x-3-3-x-0-------------| 
A|-3---x-3---x----3---x-3---x---------------| 
E|-----x-----x--------x-----x---------------| 
Parte 1 de 3
 
    C             Em7 
E|-----x-----x--------x-----x---------------| 
B|---1-x-1-1-x------3-x-3-3-x---------------| 
G|---0-x-0-0-x-0----0-x-0-0-x-0-------------| 
D|---2-x-2-2-x-0----0-x-0-0-x-0-------------| 
A|-3---x-3---x--------x-----x---------------| 
E|-----x-----x----0---x-0---x---------------| 
Parte 2 de 3
 
   F9/C           Fm/C 
E|-----x-----x--------x-----x---------------| 
B|---1-x-1-1-x------1-x-1-1-x---------------| 
G|---0-x-0-0-x-0----1-x-1-1-x-0-------------| 
D|---3-x-3-3-x-0----3-x-3-3-x-0-------------| 
A|-3---x-3---x----3---x-3---x---------------| 
E|-----x-----x--------x-----x---------------| 
Parte 3 de 3
 
    Dm             G 
E|---1-x---1-1-x--3-------------------------| 
B|---3-x---3-3-x--3-------------------------| 
G|---2-x---2-2-x--0-------------------------| 
D|-0---x-0-----x--0-------------------------| 
A|-----x-------x--2-------------------------| 
E|-----x-------x--3-------------------------| 
Base Solo: C Em7 F9/C Fm/C Parte 1 de 2
 
    C             Em7 
E|-----x-----x--------x-----x---------------| 
B|---1-x-1-1-x------3-x-3-3-x---------------| 
G|---0-x-0-0-x-0----0-x-0-0-x-0-------------| 
D|---2-x-2-2-x-0----0-x-0-0-x-0-------------| 
A|-3---x-3---x--------x-----x---------------| 
E|-----x-----x----0---x-0---x---------------| 
Parte 2 de 2
 
   F9/C           Fm/C 
E|-----x-----x------------------------------| 
B|---1-x-1-1-x----1-------------------------| 
G|---0-x-0-0-x-0--1-------------------------| 
D|---3-x-3-3-x-0--3-------------------------| 
A|-3---x-3---x----3-------------------------| 
E|-----x-----x------------------------------| 
Segunda Parte: F9/C G Se algum lugar me lembrar F9/C C Troque de rota, não passe lá F9/C G Se um filme me recordar F9/C C G Troque o canal, é só desligar Parte 1 de 4
 
    F9/C           G 
E|-----x-----x--------x-----x---------------| 
B|---1-x-1-1-x------3-x-3-3-x---------------| 
G|---0-x-0-0-x-0----0-x-0-0-x-0-------------| 
D|---3-x-3-3-x-0----0-x-0-0-x-0-------------| 
A|-3---x-3---x--------x-----x---------------| 
E|-----x-----x----3---x-3---x---------------| 
Parte 2 de 4
 
    F9/C           C 
E|-----x-----x--------x-----x---------------| 
B|---1-x-1-1-x------1-x-1-1-x---------------| 
G|---0-x-0-0-x-0----0-x-0-0-x-0-------------| 
D|---3-x-3-3-x-0----2-x-2-2-x-0-------------| 
A|-3---x-3---x----3---x-3---x---------------| 
E|-----x-----x--------x-----x---------------| 
Parte 3 de 4
 
    F9/C           G 
E|-----x-----x--------x-----x---------------| 
B|---1-x-1-1-x------3-x-3-3-x---------------| 
G|---0-x-0-0-x-0----0-x-0-0-x-0-------------| 
D|---3-x-3-3-x-0----0-x-0-0-x-0-------------| 
A|-3---x-3---x--------x-----x---------------| 
E|-----x-----x----3---x-3---x---------------| 
Parte 4 de 4
 
    F9/C           C       G 
E|-----x-----x--------x-------x-------------| 
B|---1-x-1-1-x------1-x-----3-x-------------| 
G|---0-x-0-0-x-0----0-x-0---0-x-0-----------| 
D|---3-x-3-3-x-0----2-x-0---0-x-0-----------| 
A|-3---x-3---x----3---x-------x-------------| 
E|-----x-----x--------x---3---x-------------| 
Pré-refrão: F9/C C Já que me trocou por um outro alguém G F9/C G Am7 G/B Substituir é o que te convém
C Em7 Mas quando o coração não me enxergar F9/C Vai te deixar louca de saudade Fm/C Louca de saudade C Em7 O coração vai me desejar F9/C E te deixar louca de saudade Fm/C Louca de saudade Dm Eu quero ver então G Se vai poder trocar Dm Eu quero ver então G C A Se vai poder trocar de coração
D F#m7 Mas quando o coração não me enxergar G Vai te deixar louca de saudade Gm7 Louca de saudade D F#m7 O coração vai me desejar G E te deixar louca de saudade Gm7 Louca de saudade Em Eu quero ver então A Se vai poder trocar Em Eu quero ver então A Se vai poder trocar de coração

Compartilhe esta música: novo

QR Code
Copiar