My Ding-A-Ling

Chuck Berry

Tom: G
My Ding-A-Ling 
by: Chuck berry 
Tabbed by: Jeremy Cundiff 
e-mail: [email protected] 
 
 Intro (between verses and their subsequent choruses) 
  G                 F 
e------------------------ 
a------------------------ 
d---5----5----5---------- 
g---5----5----5---------- 
b------------------------ 
e-3----3----3----3--1-1-- 
 
 Verse 
  G         C         D         G      F 
e-------------------------------------------- 
a-------------5----5----7----7--------------- 
d---5----5----5----5----7----7----5---------- 
g---5----5------------------------5---------- 
b-----------3----3----5----5----------------- 
e-3----3------------------------3---3--1-1--- 
 
G            C                    D                        G               F F 
When I was a little bitty boy, my grandmother bought me a cute little toy. 
G                     C           D                     G    G  G   G  G 
Silver bells hanging on a string, she told me it was my ding-a-ling-a-ling! 
 
 Chorus 
Strum on eights. 
 
G               C               D                    G 
My ding-a-ling, everybody sing, I wanna play with my ding-a-ling! 
G               C               D                    G                   Back to Intro 
My ding-a-ling, my ding-a-ling, I wanna play with my ding-a-ling-a-ling! 
 
 
End the song on a G. 
 

Compartilhe esta música: novo

QR Code
Copiar