Só Por Uma NoiteCifra Verificada

Charlie Brown Jr.

Tom: C#m
Intro:  

e|-------------------------------------------------------------| 
B|-------------------------------------------------------------| 
G|-------------------------------------------------------------| 
D|------2---4-----4-----------------------2---4-----4----------| 
A|--2h4---4-----2----------2---2-2-2--2h4---4-----2------------| 
E|------------0------0h2h4---4------------------0-------0h2h4--| 

e|--------------------------------------------------------------| 
B|--------------------------------------------------------------| 
G|---------4-4-4-4-4-4-4---9--9\8\4--4--16-14-13-11-11-11/13--9-| 
D|---------2-2-2-2-2-2-2----------------------------------------| 
A|--2---2--4-4-4-4-4-4-4---7--7\6\2--2--14-12-11--9--9--9/11--7-| 
E|----4----0-0-0-0-0-0-0----------------------------------------| 

e|----------------------------7--------------7-------------| 
B|----------------------------------------------------9/12-| 
G|-9-9-9\8--9/11-9-8------9----9-8h9-----9-----9-8h9-------| 
D|--------------------7/9---9--------7/9---9---------------| 
A|-7-7-7\6--7/9--7-6---------------------------------------| 
E|---------------------------------------------------------| 

e|-12----11-12---------12-----7-----------------------0-0-0-0-0-| 
B|----12-------12-9/12----12--------------------------0-0-0-0-0-| 
G|----------------------------4--13-11\9--8-8/9\4--4--1-1-1-1-1-| 
D|----------------------------------------------------2-2-2-2-2-| 
A|-------------------------------11--9\7--6-6/7\2--2--2-2-2-2-2-| 
E|----------------------------------------------------0-0-0-0-0-| 

e|----------------------0-0-0-0-0-| 
B|----------------------0-0-0-0-0-| 
G|-13-11\9--8-8/9\4--4--1-1-1-1-1-| 
D|----------------------2-2-2-2-2-| 
A|-11--9\7--6-6/7\2--2--2-2-2-2-2-| 
E|----------------------0-0-0-0-0-| 
G#m A E Eu procurei em outros corpos encontrar você G#m A E Eu procurei um bom motivo pra não, pra não falar G#m A E Eu procurei me manter afastado, mas você me conhece G#m A Eu faço tudo errado Eu Faço Tudo errado G#5 A5 E5 Fim de semana, eu sei lá Vou viajar, vou me embalar G#5 A5 Vou dar uma festa, vou tocar um puteiro E Eu vou te esquecer nem que for G#m Só por uma noite A E Só por uma noite G#m Só por uma noite A E Só por uma noite C#m7 E C#m7 E Mas só de ouvir a sua voz já me sinto bem G#m B9 Mas se é difícil pra você, tudo bem G#m B9 Muita gente se diverte com o que tem C#m7 E C#m7 E Só de ouvir a sua voz já me sinto bem G#m B9 Mas se é difícil pra você tudo bem G#m B9 Quando a gente se diverte com o que tem G#m A E Se diverte com o que tem G#m A E Só por uma noite Só por uma noite G#m A E Eu procurei abrir os olhos, enxergar você G#m A E Eu procurei um bom motivo pra não estar lá G#m A E Eu procurei me manter afastado, mas você me conhece G#m A Eu faço tudo errado Eu Faço Tudo errado G#5 A5 E5 Fim de semana, eu sei lá Vou viajar, vou me embalar G#5 A5 Vou dar uma festa, vou tocar um puteiro E Eu vou te esquecer nem que for G#m Só por uma noite A E Só por uma noite G#m Só por uma noite A E Só por uma noite C#m7 E C#m7 E Mas só de ouvir a sua voz já me sinto bem G#m B9 Mas se é difícil pra você, tudo bem G#m B9 Muita gente se diverte com o que tem C#m7 E C#m7 E Só de ouvir a sua voz já me sinto bem G#m B9 Mas se é difícil pra você tudo bem G#m B9 Quando a gente se diverte com o que tem

Compartilhe esta música: novo

QR Code
Copiar