Lugar ao solCifra Verificada

Charlie Brown Jr.

Tom: Gm
Capotraste na 1ª casa
 

Intro:  

e|---------------------------------------5-----------| 
B|----------0------0-------0-------7---5---7-5---5-7-| 
G|---6-----------------------6-------6---------6-----| 
D|-------7--------------7--------0-------------------| 
A|-9---9-------7-----7-------------------------------| 
E|---------------------------------------------------| 

e|---------------------------------2-2-2-2-2-2-------| 
B|----------0-----0--------0-------2-2-2-2-2-2-------| 
G|---6-----------------------6-----2-2-2-2-2-2-------| 
D|-------7--------------7--------0-----------0-------| 
A|-9---9-------7-----7-------------------------------| 
E|---------------------------------------------------| 
F#m E D7+ Que bom viver, como é bom sonhar e o que ficou pra trás passou F#m e eu não me importei E Foi até melhor D7+ Tive que pensar em algo novo que eu fizesse sentido F#m E Ainda vejo o mundo com os olhos de criança D7+ que só quer brincar e não tanta 'responsa' F#m Mas a vida cobra sério E D7+ e realmente não dá pra fugir
A7+ Livre pra poder sorrir (sim) F#m D7+ Livre pra poder buscar A7+ D7+ Dm7 E5 F5 O meu lugar ao Sol (3x)
F#m E Um dia eu espero te reencontrar D7+ numa bem melhor, cada um tem seu caminho F#m E Eu sei que foi até melhor D7+ Irmãos do mesmo Cristo, quero e não desisto F#m caro pai como é bom E D7+ Ter com o que se orgulhar a vida pode passar, não estou sozinho F#m Eu sei se eu tiver fé E D7+ eu volto até sonhar Refrão F#m E O amor é assim D7+ É a paz de Deus em sua casa F#m E O amor é assim D7+ A paz de Deus e nunca acaba F#m E O amor é assim D7+ É a paz de Deus em sua casa F#m E O amor é assim D7+ É a paz de Deus nunca acaba ( C D7+ A D7+ ) G E ( F#m E D7+ ) (3x) F#m Nossas vidas, nossos sonhos E D7+ têm o mesmo valor F#m Nossas vidas, nossos sonhos E têm o mesmo valor D7+ Eu vou com você para onde você for F#m E Eu descobri que é azul D7+ a cor da parede da casa de Deus F#m E D7+ e não há mais ninguém como você e eu!!! Seguência Final: (B5 D5) 3x F#m E F#m E D7+

Compartilhe esta música: novo

QR Code
Copiar