Moonshadow

Cat Stevens

Tom: D
In D: 
                                                                                 
||---5-----5--5--------3p2--3-----------2----------------------------------- 
||---------------3-------------3-----3-----3--------------0----------------- 
||*-----2-----------2-------------2--------------0--------0--------0-----0-- 
||*--0----------------------0-----------0--------------0-----0-------------- 
||--------------------------------------------------------------2-----0----- 
||--------------------------------------------2-----3----------------------- 
                                                                                 
                                                                                 
------0h2------|| 
-----------3---|| 
---2----------*|| 
0-------------*|| 
---------------|| 
---------------||
Refrain: D A7 D G A7 Oh, I'm bein' followed by a moonshadow, moon shadow, moonshadow--- D A7 D G A7 D Leapin and hoppin' on a moonshadow, moonshadow, moonshadow--- Verse 1: G D G D G D Em A7 And if I ever lose my hands, lose my plough, lose my land, G D G D Em A7 D F#m Bm Em A D Oh if I ever lose my hands, Oh if------------- I won't have to work no more. Verse 2 (use same chords as Verse 1 for all verses): And if I ever lose my eyes, if my colours all run dry, Yes if I ever lose my eyes, Oh if------------- I won't have to cry no more. Refain Verse 3: And if I ever lose my legs, I won't moan, and I won't beg, Yes if I ever lose my legs, Oh if------------- I won't have to walk no more. Verse 4: And if I ever lose my mouth, all my teeth, north and south, Yes if I ever lose my mouth, Oh if------------- I won't have to talk... Verse 5: E7 A E A Did it take long to find me? I asked the faithful light. E A E7 A Did it take long to find me? And are you gonna stay the night? Refrain G A7 D G A7 D moonshadow, moonshadow, moonshadow, moonshadow.

Compartilhe esta música: novo

QR Code
Copiar