Ilha

Casaca

Tom: A
Introdução: (A C#m A C#m A C#m A C#m ) 
 
Distorção leve 
e|-----------------------------------------------| 
B|----10-9-7----------7-9-7-9-7------------------| 
G|-----------9-----9-------------9------------9--| 
D|-------------11--------------------11-9-11-----| 
A|-----------------------------------------------| 
E|-----------------------------------------------| 
 
e|---------------------------------------------| 
B|----10-9-7----------7-9-7-9-7----------------|   
G|-----------9-----9-------------9-------------|   X2 TUDO 
D|-------------11--------------------11-9-11---| 
A|---------------------------------------------| 
E|---------------------------------------------|
Anderson R. Pereira A C#m A Sair de manhã cedo enfentar o vento sul A C#m F#m no mar de águas claras, lá da Barra do Jucu C#m D 1° Parte com meu barquinho simples levo a imaginação Em F#m Seu retrato na vela do coração
Em D que não para de sonhar Em F#m no vai e vem das ondas Em D que não para de sonhar Em no vai e vem das ondas
A C#m D E estou pensando em você/ oh minha ilha/ oh minha pequena A C#m D E estou pensando em você/ oh minha ilha/ oh minha pequena C Em F G 2° Parte estou pensando em você/ oh minha ilha/ oh minha pequena C Em F G estou pensando em você/ oh minha ilha/ oh minha pequena Solo (D# G#m G# A#) Vai assim!! 1° Parte Refrão 1° Parte Refrão 2° Parte

Compartilhe esta música: novo

QR Code
Copiar