Restos De Você

Carlinhos Rocha

Tom: Em
 
  Em         C           G             D 
E|---------------------------------------------------------------------------| 
B|---------------------------------------------------------------------------| 
G|---------------------------------------------------------------------------| 
D|-5-4-5-4-5--4-5-4-2-0--5-4-5-4-5-7-4~--------------------------------------| 
A|---------------------------------------------------------------------------| 
E|---------------------------------------------------------------------------| 
 
   Em         C           G             D 
E|---------------------------------------------------------------------------| 
B|---------------------------------------------------------------------------| 
G|---------------------------------------------------------------------------| 
D|-5-4-5-4-5--4-5-4-2-0--5-4-5-4-5-7-5-4-2~----------------------------------| 
A|---------------------------------------------------------------------------| 
E|---------------------------------------------------------------------------| 
Em C Você acha que eu sou seu, que não me desliguei G Que o meu coração nunca vai aprender D Que pago de otário, e que sempre volto quando dá saudades de você Em C Se machucando com um, com outro tanto faz G O meu coração já não aguenta mais D Vou te dar o troco, tentar te esquecer Am C Nosso amor nasceu pra dois, não podia ter três G Me risquei da sua agenda, hoje sou mais um ex D Já passou a fase que eu paguei pau pra te ter Am C Fique ai no seu mundinho eu não vou mais voltar G A chave eu já joguei fora achei o meu lugar D O meu lugar é tá solteiro, longe de você
Em C Acontece que acordei, eu já te amei demais G Eu já fiz de tudo e nunca foi capaz Quem não compreende um olhar, D tão pouco compreenderá a paixão
Em C Rasga bate no meu peito é o resto de você G Que vai perdendo força até desaparecer D Am C Em Vou te eliminar de vez daqui do coração
 
 Em         C           G             D 
E|---------------------------------------------------------------------------| 
B|---------------------------------------------------------------------------| 
G|---------------------------------------------------------------------------| 
D|-5-4-5-4-5--4-5-4-2-0--5-4-5-4-5-7-4~--------------------------------------| 
A|---------------------------------------------------------------------------| 
E|---------------------------------------------------------------------------| 
 
   Em         C           G             D 
E|---------------------------------------------------------------------------| 
B|---------------------------------------------------------------------------| 
G|---------------------------------------------------------------------------| 
D|-5-4-5-4-5--4-5-4-2-0--5-4-5-4-5-7-5-4-2~----------------------------------| 
A|---------------------------------------------------------------------------| 
E|---------------------------------------------------------------------------| 
Am C Nosso amor nasceu pra dois, não podia ter três G Me risquei da sua agenda, hoje sou mais um ex D Já passou a fase que eu paguei pau pra te ter Am C Fique ai no seu mundinho eu não vou mais voltar G A chave eu já joguei fora achei o meu lugar D O meu lugar é tá solteiro, longe de você
Em C Acontece que acordei, eu já te amei demais G Eu já fiz de tudo e nunca foi capaz Quem não compreende um olhar, D tão pouco compreenderá a paixão
Em C Rasga bate no meu peito é o resto de você G Que vai perdendo força até desaparecer D Am C Em Vou te eliminar de vez daqui do coração

Compartilhe esta música: novo

QR Code
Copiar