What Have I Done

Carl Barat

Tom: C
Capo on the 1st fret 


Intro: D   A   G   A 


D   A   G           A 
Oh God, what have I done ? 
D        A 
Another mood's come and 
G                A 
Blocked out the sun 
Bm          A              G                  Bb 
What will I do when this world's reduced to crumbs ? 

C          G 
You're a dancer 
         D            A 
And you move and you swing 
C      G                      D         A 
And I love you even when you ruin everything 
C         G 
You're a dancer 
         D             A  
And you dance and you swing 


Middle: D  A  G  A 


D   A  G            A 
Oh God what have I done? 
D        A       G     A 
I didn't mean to hurt anyone 
Bm         A            G                Bb 
What do I do when this world stops being fun ? 

C          G                   D         A 
Turn on my training heels and run, run, run 
C          G                   D         A 
Turn on my training heels and run, run, run 
C          G                   D         A 
Turn on my training heels and run 
C          G                   D         A               G 
Turn on my training heels and run, run, run    run, run run 


Solo (NOT relative to capo): 
e-----------------11--9--8-------------------------------------------------| 
B------8----9--11----------11--9-9--8h9p8----------------------------------| 
G----8---10-------------------------------10--8----------------------------| 
D-10--------------------------------------------10--------8----------------| 
A--------------------------------------------------10-11----11-10-11-------| 
E--------------------------------------------------------------------------| 

e--------------------------------------------------------------------------| 
B-8h9p8--------------------------------------------------------------------| 
G--------10-8-10--8-10-8---------------------------------------------------| 
D-------------------------10--8-8------------------------------------------| 
A--------------------------------------------------------------------------| 
E--------------------------------------------------------------------------| 
Chords played during solo: Bm C G D Bm C Em C A D A G A Oh girl, what have I done ? D A G A Looks like I've tied you up in all the yarns I've spun Bm A G Bb But I'll be here to catch you when the whole thing comes undone C G You're a dancer D A And you move and you swing C G D A And I love you even when you ruin everything C G D A You're the answer we can still have the sun C G Put on our training heels D A And run, run, run run, run, run.....

Compartilhe esta música: novo

QR Code
Copiar