Um Dia Seremos Um

Carapuça

Tom: G
Intro: G D/F# G A D 

                                                         3x 
E|--------------------------|---------------------------|| 
B|--------5-----------5-----|--------5-----------5------|| 
G|--7--7-----7-----7-----7--|--7--7-----7-----7-----7--*|| 
D|--------------------------|--------------------------*|| 
A|--------------------------|---------------------------|| 
E|--------------------------|---------------------------|| 

--------------------------|-----------------------------|| 
--7--------7--------7-----|--10--------10--------10-----|| 
-----7--7-----7--7-----7--|------7--7------7--7------7--|| 
--------------------------|-----------------------------|| 
--------------------------|-----------------------------|| 
--------------------------|-----------------------------|| 

G Me tornei mais forte com a vida D/F# Eu curei aquela ferida G A D E hoje eu faço tudo pra mudar G Os heróis existem D/F# Somos todos nós Não importa a idade G Ouça a minha voz Você pode tudo A D Se lutar D A/C# Não dá mais pra me contentar Bm Vou punir os males A Acertar os erros D A/C# Não vou mais ter que aturar Bm Somos muitas vozes A Eles vão ver G D A/C# Bm A Um dia seremos D Por aqueles que você ama A/C# Um pequeno ato é a chama Bm A Pra fazer a vida melhorar D Não deixe o medo te controlar A/C# Eu dou as asas pra você voar Bm Você pode tudo A Se lutar D A/C# Não dá mais pra me contentar Bm Vou punir os males A Acertar os erros D A/C# Não vou mais ter que aturar Bm Somos muitas vozes A Eles vão ver G Um dia seremos
     PM PM PM PM PM PM PM PM    PM PM PM PM 
E|--------------------------|--------------------------| 
B|--------------------------|--------------------------| 
G|--------------------------|--------------------------| 
D|--------------------------|--------------2--4--2--4--| 
A|--4--4--4--4--4--4--4--4--|--4--4--4--4--0--2--0--2--| 
E|--2--2--2--2--2--2--2--2--|--2--2--2--2--------------| 

  PM PM PM PM PM PM PM PM    PM PM PM PM PM PM PM PM PM PM 
--------------------------|---------------------------------|| 
--------------------------|---------------------------------|| 
--------------------------|--------------------------------*|| 
--------------------------|--------------4--4--4--4--4--4--*|| 
--2--2--2--2--2--2--2--2--|--2--2--2--2--2--2--2--2--2--2---|| 
--0--0--0--0--0--0--0--0--|--0--0--0--0--2--2--2--2--2--2---|| 



G 
 Exija respeito 
A 
 Não tenha medo 
G 
 De me encarar 
A 
 Olhe nos olhos 
Bm 
 Um dia seremos 

G 
 Ser bom não é ser fraco 
A 
 Acredite em si mesmo 
G 
 Estou com você 
A 
 Onde estiver 

Bm              D 
 Um dia seremos 
D                  A/C# 
Não dá mais pra me contentar 

      Bm 
Vou punir os males 
     A 
Acertar os erros 
D                    A/C# 
Não vou mais ter que aturar 
      Bm 
Somos muitas vozes 
 A 
você vai ver 
   G           G  D/F# Em F#m G D 
Um dia seremos Um 

Compartilhe esta música: novo

QR Code
Copiar