Parabéns

Carapuça

Tom: Bb
Intro
E|------------------------|------------------------| 
B|------------------------|------------------------| 
G|------------------------|------------------------| 
D|--8----8----8--8--6--5--|---------------------5--| 
A|------------------------|--8----8----8--6--8-----| 
E|------------------------|------------------------| 

E|------------------------|------------------------| 
B|------------------------|------------------------| 
G|------------------------|------------------------| 
D|--6----6---6--6--8s--10-|--8----8----8----8------| 
A|------------------------|------------------------| 
E|------------------------|------------------------| 

    Bb5                       F5 
E|------------------------|------------------------| 
B|------------------------|------------------------| 
G|------------------------|------------------------| 
D|--8----8----8--8--6--5--|---------------------5--| 
A|------------------------|--8----8----8--6--8-----| 
E|------------------------|------------------------| 

    Ab5                         Bb5  Ab5  Bb5 
E|------------------------|------------------------| 
B|------------------------|------------------------| 
G|------------------------|------------------------| 
D|--6---6---6--6--8s--10--|--8---------------------| 
A|------------------------|------------------------| 
E|------------------------|------------------------|
Bb5 F5 Parabéns pra você Ab5 Bb5 Nessa data esquecida Bb5 F5 E muita infelicidade Ab5 Bb5 Ab5 Bb5 Menos anos Bb Eb Eu só digo parabéns pra você F Bb Mas apenas se você merecer Bb Eb Por um lado a sua festinha esta legal (está) F Bb Bolo, churrasco e carnaval (yamm) Bb Eb O seu pai tá pulando a cerca (a mãe também) F Nesses assuntos Bb Meu filho não se meta Bb Eb Seu irmãozinho esta pedindo no sinal F Bb5 Ab5 Bb5 Com destino a virar um marginal
     Bb                             Eb 
E|------------------------------|---------------------------| 
B|--x--11--x--11--x--11--11-----|--x-----x------------------| 
G|--x--10--x--10--x--10--10-----|--x--8--x--8----8--8s--10--| 
D|--x------x------x-------------|--x--8--x--8----8--8s--10--| 
A|------------------------------|---------------------------| 
E|------------------------------|---------------------------| 
  
   F                                 Bb 
E|------------------------------|-------------------------------| 
B|--------x---------------------|--x--11--x---------------------| 
G|---x----x--10s--8--8--8s--10--|--x--10--x---------------------| 
D|--10----x--10s--8--8--8s--10--|--x---8--x--8--10p--8--10p--8--| 
A|------------------------------|-------------------------------| 
E|------------------------------|-------------------------------| 

(Riff 2) 

     Bb                             Eb 
E|------------------------------|------------------------| 
B||--x--11--x--11--x--11--11----|--x-----x---------x-----|  
G||--x--10--x--10--x--10--10----|--x--8--x--8------x--8--| 
D||--x---8--x---8--x---8---8----|--x--8--x--8------x--8--| 
A|------------------------------|------------------------| 
E|------------------------------|------------------------| 

     F                               Bb                               
E|--------------------------------|------------------------------| 
B|--------------------------------|--x--11--x--------------------| 
G|--10s--8--8--10s--8--8--8s--10--|--x--10--x--------------------| 
D|--10s--8--8--10s--8--8--8s--10--|--x---8--x--8--10s--8--10s--8-| 
A|--------------------------------|------------8--10s--8--10s--8-| 
E|--------------------------------|------------------------------| 

(Riff 3) 

     Bb                             Eb 
E|------------------------------|---------------------------| 
B|--x--11--x--11--x--11--11-----|--x-----x------------------| 
G|--x--10--x--10--x--10--10-----|--x--8--x--8----8--8s--10--| 
D|--x------x------x-------------|--x--8--x--8----8--8s--10--| 
A|------------------------------|---------------------------| 
E|------------------------------|---------------------------| 
   
   F                                 Bb 
E|------------------------------|-------------------------------| 
B|--------x---------------------|--x--11--x---------------------| 
G|---x----x--10s--8--8--8s--10--|--x--10--x---------------------| 
D|--10----x--10s--8--8--8s--10--|--x---8--x--8--10p--8--10p--8--| 
A|------------------------------|-------------------------------| 
E|------------------------------|-------------------------------| 

(Riff 4) 

     Bb                             Eb 
E|------------------------------|-----------------------| 
B|--x--11--x--11--x--11--11-----|--x-----x--------------| 
G|--x--10--x--10--x--10--10-----|--x--8--x--8------8----| 
D|--x---8--x---8--x---8---8-----|--x--8--x--8------8----| 
A|------------------------------|-----------------------| 
E|------------------------------|-----------------------| 
  
    F                                    Bb5  Ab5  Bb5 
E|---------------------------------|---------------------------| 
B|---------------------------------|--x--11----9--11-----------| 
G|--8s--10-------(10)-----(10)-----|--x--10----8--10-----------| 
D|--8s--10--------10-------10------|--x---8----6---8-----------| 
A|---------------------------------|--x---8----6---8-----------| 
E|---------------------------------|---------------------------| 
Bb5 F5 Parabéns pra você Ab5 Bb5 Nessa data esquecida Bb5 F5 E muita infelicidade Ab5 Bb5 Ab5 Bb5 Menos anos Bb5 Ab5 Bb5 Bb5 Ab5 Bb5 Parabéns pra você Ab5 Nessa data esquecida Bb5 F5 E muita infelicidade Ab5 Bb5 Ab5 Bb5 Menos anos Bb Eb Eu só digo parabéns pra você F Bb Mas apenas se você merecer (eu mereço) Bb Eb Por um lado a sua festinha esta legal (está) F Bb Bolo, confeti e carnaval (Yeii!) Bb Eb O seu pai tá pulando a cerca (a vó também) F Nesses assuntos Bb Meu filho não se meta Bb Eb Seu irmãozinho esta pedindo no sinal F Bb5 Ab5 Bb5 Com destino a virar um marginal Bb5 F5 Parabéns pra você Ab5 Bb5 Nessa data esquecida Bb5 F5 E muita infelicidade Ab5 Bb5 Ab5 Bb5 Menos anos Bb5 Ab5 Bb5 Bb5 Ab5 Bb5 Parabéns pra você Bb Nessa data esquecida, e o povo? Ab Morrendo de fome Bb Não sabe onde dorme Ab Bb Jogados no lixo sem valor Culpa dos pais sem amor Ab5 C5 Bb5 Com quem será Ab5 C5 Bb5 Com quem será Ab5 C5 Eb5 C5 Ab5 C5 Bb5 Com quem será que o otário vai casar Ab5 C5 Bb5 Vai depender Ab5 C5 Bb5 Vai depender Ab5 C5 Eb5 C5 Ab5 C5 Bb5 Vai depender se a vagaba vai querer ( Bb5 Ab5 Bb5 )

Compartilhe esta música: novo

QR Code
Copiar