Eu Vou Com Deus

Carapuça

Tom: Bm
Intro: 

E|------------------------|-----------------------------| 
B|------------------------|-----------------------------| 
G|------------------------|-----------------------------| 
D|---------0--------------|--0h--2--2s-4-2~------2s--0--| 
A|--0h--2-----2--------L--|-----------------------------| 
E|------------------------|-----------------------------| 

                                                       3x 
--------------------------|----------------------------|| 
--------------------------|----------------------------|| 
--------------------------|---------------------------*|| 
---------0----------0-----|--2s-4---4--7--------------*|| 
--0h--2-----2----2-----2--|---------------7----7s--5---|| 
--------------------------|----------------------------|| 


------------------------|-----------------------------| 
------------------------|-----------------------------| 
------------------------|-----------------------------| 
---------0--------------|--0h--2--2s-4-2~------2s--0--| 
--0h--2-----2--------L--|-----------------------------| 
------------------------|-----------------------------| 


---------------------------|---------------------------|--------------------|| 
---------------------------|---------------------------|--------------------|| 
---------------------------|---------------------------|--------------------|| 
---------0-----0-----0-----|--2s-4---4--7--------------|--------------------|| 
--0h--2-----2-----2-----2--|---------------7----7s--5--|--5~----------------|| 
---------------------------|---------------------------|--------------------|| 

Bm7 E7 A desigualdade vence entre nós Bm7 Todo mundo quer o seu F#m7 E7 E eu fico na pior Bm7 Brasileiro otário E7 Não reclama não Bm7 Aceita a roubalheira F#m E7 D É palhaço de plantão D E eu vou com Deus A Eu vou com dor D Eu vou de trem A Eu vou de metro G D E todo dia você dança A Enquanto eles brincam com você G D A E todo dia a sua pança ronca em quanto você não comer D E eu vou com Deus A Eu vou com dor D Eu vou de trem A Eu vou de metro G D E todo dia você dança A Enquanto eles brincam com você G D A E todo dia a sua pança ronca em quanto você não comer
Intro: 

E|------------------------|-----------------------------| 
B|------------------------|-----------------------------| 
G|------------------------|-----------------------------| 
D|---------0--------------|--0h--2--2s-4-2~------2s--0--| 
A|--0h--2-----2--------L--|-----------------------------| 
E|------------------------|-----------------------------| 

                                                       3x 
--------------------------|----------------------------|| 
--------------------------|----------------------------|| 
--------------------------|---------------------------*|| 
---------0----------0-----|--2s-4---4--7--------------*|| 
--0h--2-----2----2-----2--|---------------7----7s--5---|| 
--------------------------|----------------------------|| 


------------------------|-----------------------------| 
------------------------|-----------------------------| 
------------------------|-----------------------------| 
---------0--------------|--0h--2--2s-4-2~------2s--0--| 
--0h--2-----2--------L--|-----------------------------| 
------------------------|-----------------------------| 


---------------------------|---------------------------|--------------------|| 
---------------------------|---------------------------|--------------------|| 
---------------------------|---------------------------|--------------------|| 
---------0-----0-----0-----|--2s-4---4--7--------------|--------------------|| 
--0h--2-----2-----2-----2--|---------------7----7s--5--|--5~----------------|| 
---------------------------|---------------------------|--------------------|| 

Bm7 E7 Você tem vergonha do que você fez Bm7 Todo mundo erra F#m7 E7 Sempre tem primeira vez Bm7 E7 Danem-se aqueles que riram de você Bm7 F#m7 E7 D Pegue a segunda chance e encare de uma vez D E eu vou com Deus A Eu vou com dor D Eu vou de trem A Eu vou de metro G D E todo dia você dança A Enquanto eles brincam com você G D A E todo dia a sua pança ronca em quanto você não comer D E eu vou com Deus A Eu vou com dor D Eu vou de trem A Eu vou de metro G D E todo dia você dança A Enquanto eles brincam com você G D A E todo dia a sua pança ronca em quanto você não comer D E eu vou com Deus A Eu vou com dor D Eu vou de trem A Eu vou de metro G D E todo dia você dança A Enquanto eles brincam com você G D A E todo dia a sua pança ronca em quanto você não comer G D A D E todo dia a sua grana sai do bolso e você não vê A D Sai do bolso e você não vê A Dm C G/B Am G (G Am G/B C) G Sai do bolso e você não vê
Lick final (Improviso) 

E|----------------------|-------------------3------L--|| 
B|--6----5----3----1----|--0----0-1-3--5----3---------|| 
G|----------------------|-------------------4---------|| 
D|----------------------|-------------------5---------|| 
A|--5----3----2----0----|---------0-2--3----5---------|| 
E|----------------------|--3----3-----------3---------||

Compartilhe esta música: novo

QR Code
Copiar