Boy Maloqueiro

Carapuça

Tom: G
Intro:  C#5  C#5  
        C#5  C#5  
        C#5  C#5  
        C#5  C#5  

     C#5 
E|---------------------------------| 
B|---------------------------------| 
G|--------------------------------*| 
D|--6--6--------------------------*| 
A|--4--4---------------------------| 
E|--4--4---------------------------|
C#m B Junior nasceu em berço de ouro G#m C#m B G#m E mal sabia que o rico no brasil é mais rico C#m B Ganhou um carro importado do papai G#m C#m B G#m Dá role no volume mais alto ouvindo racionais C#m B Ele fala gíria como mano G#m C#m Se acha do gueto B No skate é malandro G#m C#m B Torra grana na balada e usa coca pra caraio G#m C#m B G#m Sempre teve tudo e banca o mau C#m Animal! B G#m C#m B G#m O que eu quero mesmo é manjar um belo preço C#m Chamuska! B G#m C#m B Para combater, vamos canalizar! ( C#5 C#5 ) ( C#5 C#5 ) ( C#5 C#5 ) ( C#5 C#5 )
Solo 
E|---------------------------------| 
B|---------------------------------| 
G|---------6---x-4-x-4-x-3-4-3-----| 
D|-----------------------------6---| 
A|--4--x-x-------------------------| 
E|---------------------------------|

E|---------------------------------| 
B|---------------------------------| 
G|---------6---x-4-x-4-x-3-4~------| 
D|---------------------------------| 
A|--4--x-x-------------------------| 
E|---------------------------------| 
C#m B G#m Governo, policia, traficante e você C#m B Todo mundo tem culpa G#m C#m Não protesta e consome B G#m Qual é a consequência? C#m B G#m A mamãe leva um tiro no sinal C#m Animal! B G#m C#m B G#m Você tá dizendo que tudo na vida tem um preço? C#m Chamuska! B G#m C#m B Para combater, vamos denunciar! Riff
     B  C#5       B  C#5          B  C#5       B  C#5 
E|--------------------------|--------------------------| 
B|--------------------------|--------------------------| 
G|--------------------------|--------------------------| 
D|--4s--6--6----4s--6--6----|--4s--6--6----4s--6--6----| 
A|--2s--4--4----2s--4--4----|--2s--4--4----2s--4--4----| 
E|--2s--4--4----2s--4--4----|--2s--4--4----2s--4--4----| 


                               PM PM PM PM PM PM PM PM    
    B  C#5       B  C#5          D5 
E|--------------------------|--------------------------| 
B|--------------------------|--------------------------| 
G|--------------------------|--------------------------| 
D|--4s--6--6----4s--6--6----|--7--7--7--7--7--7--7--7--| 
A|--2s--4--4----2s--4--4----|--5--5--5--5--5--5--5--5--| 
E|--2s--4--4----2s--4--4----|--5--5--5--5--5--5--5--5--|
B C#5 B C#5 B C#5 B C#5 B C#5 B C#5 Nana nana nana nana nana nanana D5 Nada de grana! B C#5 B C#5 B C#5 B C#5 B C#5 B C#5 Nana nana nana nana nana nanana D5 Filho da puta
    C#5       D5  C#5           D  B 
E|----------------------------------| 
B|----------------------------------| 
G|----------------------------------| 
D|--6--------7--6-------------7--4--| 
A|--4--4--4--5--4----4--4--4--5--2--| 
E|--4--4--4--5--4----4--4--4--5--2--|
C#5 D C#5 C#5 D B Boy maloqueiro é paga pau C#5 D C#5 C#5 D B Boy maloqueiro é pensa que é mau C#5 D C#5 C#5 D B C#5 D C#5 C#5 D B Boy maloqueiro é paga pau
( C#5 C#5 ) ( C#5 C#5 ) ( C#5 C#5 ) Lick
E|-----------------------------------|----------------------------------| 
B|-----------------------------------|----------------------------------| 
G|--11s-9-x-x-9--x-9-x-9-x-x-11--12--|--11s-9-x-x-9--x-9s-11-------x-x-*| | 
D|--11s-9-x-x-9--x-9-x-9-x-x-11--12--|--11s-9-x-x-9--x-9s-11-------x-x-*| | 
A|-----------------------------------|----------------------------------| 
E|-----------------------------------|----------------------------------|
C#m B G#m C#m B G#m Para o mundo o brasil se resume a putaria e muito futebol C#m B Somos macacos usados G#m C#m B G#m Votando nos mesmos e aceitando os termos no final C#m Animal! B G#m C#m B G#m Isso é normal: só ter brasileiro otário? C#m Chamuska! B G#m C#m B Para combater, vamos canalizar! B C#5 B C#5 B C#5 B C#5 B C#5 B C#5 Nana nana nana nana nana nanana D5 Nada de grana! B C#5 B C#5 B C#5 B C#5 B C#5 B C#5 Nana nana nana nana nana nanana D5 Filho da puta
C#5 D C#5 C#5 D B Boy maloqueiro é paga pau C#5 D C#5 C#5 D B Boy maloqueiro é pensa que é mau C#5 D C#5 C#5 D B C#5 D C#5 C#5 D B Boy maloqueiro é paga pau C#5 D5 C#5 C#5 D5 B5 Tem brasileiro, filho da sua C#5 D5 C#5 C#5 D5 B5 Tem brasileiro, filho da pu... C#5 D5 C#5 C#5 D5 B5 C#5 D5 C#5 C#5 D5 B5 Tem brasileiro, filho da puta
( C#5 - C#5 )
     C#5           D5  C#5           C#5            D5  E5  D5 
E|------------------------------|----------------------------| 
B|------------------------------|----------------------------| 
G|------------------------------|----------------------------| 
D|--6--------------7--6---------|--6--------------7--9--7----| 
A|--4--4--4--4--4--5--4--x--x-x-|--4--4--4--4--4--5--7--5----| 
E|--4--4--4--4--4--5--4--x--x-x-|--4--4--4--4--4--5--7--5----|
( C#5 C#5 C#5 C#5 C#5 D5 C#5 C#5 C#5 C#5 C#5 C#5 D5 E5 D5 ) ( C#5 C#5 C#5 C#5 C#5 D5 C#5 C#5 C#5 C#5 C#5 C#5 D5 E5 D5 ) ( C#5 C#5 C#5 C#5 C#5 D5 C#5 C#5 C#5 C#5 C#5 C#5 D5 E5 D5 ) ( C#5 C#5 C#5 C#5 C#5 D5 C#5 C#5 C#5 C#5 C#5 C#5 D5 E5 D5 ) ( C#5 C#5 C#5 C#5 C#5 D5 C#5 C#5 C#5 C#5 C#5 C#5 D5 E5 D5 ) ( C#5 C#5 C#5 C#5 C#5 D5 C#5 C#5 C#5 C#5 C#5 C#5 D5 E5 D5 ) ( C#5 C#5 C#5 C#5 C#5 D5 C#5 C#5 C#5 C#5 C#5 C#5 D5 E5 D5 ) ( C#5 C#5 C#5 C#5 C#5 D5 C#5 C#5 C#5 C#5 C#5 C#5 D5 E5 D5 ) ( C#5 C#5 C#5 C#5 C#5 D5 C#5 )

Compartilhe esta música: novo

QR Code
Copiar