Aqui Se Faz, Aqui Se Paga

Carapuça

Tom: Eb
Intro: C5  Eb5  D5 
        C5  Eb5  D5 

     C5                       Eb5        D5        
E||------------------------|------------------------|| 
B||------------------------|------------------------|| 
G||------------------------|------------------------|| 
D||--------5----------5----|--------8----------7----|| 
A||--3--3--3----3--3--3----|--6--6--6----5--5--5----|| 
E||--3--3--3----3--3--3----|--6--6--6----5--5--5----|| 
C5 Eb5 D5 Você paga o que você faz C5 Eb5 D5 Você paga o que você faz C5 Eb5 D5 C5 Por bem ou mal, você vai pagar Eb5 D5 Aqui se faz, aqui se paga!
     Eb5  F5                         (3x)   Ab5  G5  Ab5  G5  F5  Eb5   
E||------------------------------------||------------------------|| 
B||------------------------------------||------------------------|| 
G||------------------------------------||------------------------|| 
D||------------------------------------||--6---5---6---5---------|| 
A||--6h-8-8-8-8-8-8-8-6h-8-8-8-8-8-8-8-||------------------8--6--|| 
E||------------------------------------||------------------------|| 
Eb5 F5 Eb5 F5 Pare já! E me fale o que dá medo Eb5 F5 Eb5 F5 Conte já! Seus segredos e receios Eb5 F5 Eb5 F5 Siga já! Teu amigo dá um jeito Ab5 G5 Ab5 G5 F5 Eb5 Vamos canalizar! Eb5 F5 Eb5 F5 Pare já! Foi tá feito Eb5 F5 Eb5 F5 Conte já! O que vai melhorar? Eb5 F5 Eb5 F5 Siga já! Tá acabando o tempo Ab5 G5 Ab5 G5 F5 Eb5 Vamos canalizar!
    Eb5  F5         Eb5  F5           Eb5  C5 
E||-------------------------------|--------------------------------|| 
B||-------------------------------|--------------------------------|| 
G||-------------------------------|-------------------------------- 
D||-------------------------------|--------------------------------|| 
A||--6h--8--8-8-8-8-6--8--8-8-8-8-|--6-----------------------------|| 
E||-------------------------------|-----8--8-8-8-8-8-8-8-8-8-8-8-8- 

     Eb5  F5         Eb5  F5           Eb5  C5         F   Eb   F 
E||-------------------------------|-----------------------------|| 
B||-------------------------------|-----------------------------|| 
G||-------------------------------|----------------10---8---10--|| 
D||-------------------------------|-----------------------------|| 
A||--6h--8--8-8-8-8-6--8--8-8-8-8-|--6--------------8---6----8--|| 
E||-------------------------------|-----8--8-8-8-8--------------|| 

    F#5  F5  Eb5  F5  Eb5  C5   F#5  F5  Eb5  F5  Eb5  C5 
E||------------------------|------------------------|| 
B||------------------------|------------------------|| 
G||------------------------|------------------------|| 
D||------------------------|------------------------|| 
A||--9---8---6----8--6-----|--9---8---6----8--6-----|| 
E||---------------------8--|---------------------8--|| 
     
     G   Ab                       G  Eb 
E||----------------------------|--------------------------|| 
B||----------------------------|--------------------------|| 
G||----------------------------|--------------------------|| 
D||--5h--6--6--6--5h--6--6--6--|--5-----------------------|| 
A||----------------------------|-----6--6--6--6--6--6--6--|| 
E||----------------------------|--------------------------|| 
Eb5 F5 Eb5 F5 Eb5 Aiai aiai ai C5 Enfrente o medo Eb5 F5 Eb5 F5 Eb5 Você é capaz C5 F Eb F Não entre em desespero Eb5 F5 Eb5 F5 Eb5 Se não aguentar C5 Eu tenho a solução F#5 F5 Eb5 F5 Eb5 C5 F#5 F5 Eb5 F5 Eb5 C5 De sa fie o desconhecido e você vai ganhar G Ab G Ab G Eb G Ab G Ab G Eb Eu disse: ?Você vai ganhar!? C5 Eb5 D5 Você paga o que você faz C5 Eb5 D5 Você paga o que você faz C5 Eb5 D5 C5 Por bem ou mal, você vai pagar C5 Ab G Você C5 Eb5 D5 Você paga o que você faz C5 Eb5 D5 Você paga o que você faz C5 Eb5 D5 C5 Por bem ou mal, você vai pagar C5 Ab5 G5 Você Eb5 F5 Eb5 F5 Pare já! Você fez merda Eb5 F5 Eb5 F5 Conte já! Agora aguenta Eb5 F5 Eb5 F5 Siga já! A hora é essa Ab5 G5 Ab5 G5 F5 Eb5 Vamos canalizar! Eb5 F5 Eb5 F5 Pare já! Foi tá feito Eb5 F5 Eb5 F5 Conte já! O que vai melhorar? Eb5 F5 Eb5 F5 Siga já! Ta acabando o tempo Eb5 F5 Eb5 F5 Vamos canalizar! Eb5 F5 Eb5 F5 Eb5 Aiai aiai ai C5 Enfrente o medo Eb5 F5 Eb5 F5 Eb5 Você é capaz C5 F Eb F Não entre em desespero Eb5 F5 Eb5 F5 Eb5 Se não aguentar C5 Eu tenho a solução F#5 F5 Eb5 F5 Eb5 C5 F#5 F5 Eb5 F5 Eb5 C5 De sa fie o desconhecido e você vai ganhar G Ab G Ab G Eb Olha eu disse G Ab G Ab G Eb Eu não disse nada, desculpa C5 Eb5 D5 Você paga o que você faz C5 Eb5 D5 Você paga o que você faz C5 Eb5 D5 C5 Por bem ou mal, você vai pagar C5 Ab G Você C5 Eb5 D5 Você paga o que você faz C5 Eb5 D5 Você paga o que você faz C5 Eb5 D5 C5 Por bem ou mal, você vai pagar C5 Ab5 G5 Você Eb5 F5 Eb5 F5 Eb5 Aiaiaiaiai C5 Bb5 Ab5 Bb5 Você é capaz! Eb5 F5 Eb5 F5 Eb5 C5 E se nunca mais? F#5 F5 Eb5 F5 Eb5 C5 F#5 F5 Eb5 F5 Eb5 C5 De sa fie o desconhecido e você vai ganhar F#5 F5 Eb5 F5 Eb5 C5 F#5 F5 Eb5 F5 Eb5 C5 Se ja amigo do desconhecido F#5 F5 Eb5 F5 Eb5 C5 F#5 F5 Eb5 F5 Eb5 C5 C5 Se ja o próprio medo desconhecido e você vai ganhar Quem disse que acabou?
    F5                   Eb5    C5  
E||----------------------------|---------------------------------|| 
B||----------------------------|---------------------------------|| 
G||----------------------------|---------------------------------|| 
D||----------------------------|---------------------------------|| 
A||--8----8----8-------8---6---|---------------------------------|| 
E||----------------------------|--8--8-8-8-8-8-8-8-8-8-8-8-8-8-8-|| 

     F5                   Eb5     C5 
E||----------------------------|------------------------------|| 
B||----------------------------|------------------------------|| 
G||----------------------------|------------------------------|| 
D||----------------------------|------------------------------|| 
A||--8----8----8-------8---6---|------------------------------|| 
E||----------------------------|--8--8-8-8--8-8-8--8-8-8--8-8-||  

     F5                   Eb5    C5  
E||----------------------------|---------------------------------|| 
B||----------------------------|---------------------------------|| 
G||----------------------------|---------------------------------|| 
D||----------------------------|---------------------------------|| 
A||--8----8----8-------8---6---|---------------------------------|| 
E||----------------------------|--8--8-8-8-8-8-8-8-8-8-8-8-8-8-8-|| 
F5 F5 Eb5 C5 Aiai...ai ai ai F5 F5 Eb5 C5 Você...é capaz F5 F5 Eb5 C5 E se...nunca mais? F#5 F5 Eb5 F5 Eb5 C5 F#5 F5 Eb5 F5 Eb5 C5 De sa fie o desconhecido e você vai ganhar F#5 F5 Eb5 F5 Eb5 C5 F#5 F5 Eb5 F5 Eb5 C5 Se ja amigo do desconhecido F#5 F5 Eb5 F5 Eb5 C5 F#5 F5 Eb5 F5 Eb5 C5 C5 Se ja o próprio medo desconhecido e você vai ganhar
     E5                  E4      E5  E4        E 
E||-------------------|---------------------|-------------------| 
B||-------------------|---------------------|-------------------| 
G||-------------------|---------------------|-------------------| 
D||--9----------------|--7--------9--7------|--6----------------| 
A||--7----------------|--7--------7--7------|--7----------------| 
E||-------------------|---------------------|-------------------| 

  E               
E|-------------------| | 
B|-------------------| | 
G|-------------------| | 
D|--6----------------| | 
A|--7----------------| | 
E|-------------------| |
E5 E4 E5 E4 E E Você paga o que você faz

Compartilhe esta música: novo

QR Code
Copiar