Adrenalina

Carapuça

Tom: G
Intro 

    E5    G      E5    G        E5   G5     E5   G5 
E|-----------------------------------------------------| 
B|-----------------------------------------------------| 
G|-----------------------------------------------------| 
D|-----------------------------------------------------| 
A|--2--2-----2--2--2-----2-----2--2-----2--2--2-----2--| 
E|--0--0--3-----0--0--3--------0--0--3-----0--0--3-----| 

    D                         B5    A5    G5    F#5 
E|-----------------------------------------------------| 
B|-----------------------------------------------------| 
G|-----------------------------------------------------| 
D|-----------------------------------------------------| 
A|--5--5-----0--5--5-----0-----2--2--0--0--------------| 
E|--5--5--2-----5--5--2--------------------3--3--2--2--| 

    E5 
E|-----------------------------------------------------| 
B|-----------------------------------------------------| 
G|--9-----9-----9-----9--------9-----9-----9-----9-----| 
D|--9-----9-----9-----9--------9-----9-----9-----9-----| 
A|--7-----7-----7-----7--------7-----7-----7-----7-----| 
E|-----------------------------------------------------| 

    D5   
E|-----------------------------------------------------| 
B|-----------------------------------------------------| 
G|--7-----7-----7-----7--------7-----7-----7-----7-----| 
D|--7-----7-----7-----7--------7-----7-----7-----7-----| 
A|--5-----5-----5-----5--------5-----5-----5-----5-----| 
E|-----------------------------------------------------| 

     E5                         C5                        
E|-----------------------------------------------------| 
B|--x--8--x--8--x--8--x--8-----x--8--x--8--x--8--x--8--| 
G|--x--9--x--9--x--9--x--9-----x--9--x--9--x--9--x--9--| 
D|--x--9--x--9--x--9--x--9-----x--9--x--9--x--9--x--9--| 
A|--x--x--x--x--x--x--x--x-----x--x--x--x--x--x--x--x--| 
E|-----------------------------------------------------| 

   A5    
E|------------------------------------------------------| 
B|--x--5--x--5--x--5--x--5-----5--5--5--5s--7--7--7--8--| 
G|--x--5--x--5--x--5--x--5-----5--5--5--5s--7--7--7--9--| 
D|--x--5--x--5--x--5--x--5-----x--x--x--x---x--x--x--9--| 
A|--x--x--x--x--x--x--x--x---------------------------x--| 
E|------------------------------------------------------| 
Em C Am O filme da sua vida não tem como entender Em C Am Velocidade, adrenalina, sempre vão percorrer Em C Am Pelo seu sangue, você quer mais e mais Em C Am Am Você não pensa, só segue o seu coração A5 F5 G5 E o sangue corre, corre A5 F5 G5 Vai depressa, mais depressa, mais depressa A5 F5 G5 E o sangue corre, corre A5 F5 G5 Vai depressa, mais depressa, mais depressa Em C Am O filme da sua vida passa e vai descrever Em C Am Os seus erros, os seus desejos, não tem como esquecer Em C Am E a resposta só você pode dar Em C Am Am Você não pensa, só segue o seu coração A5 F5 G5 E o sangue corre, corre A5 F5 G5 Vai depressa, mais depressa, mais depressa A5 F5 G5 E o sangue corre, corre A5 F5 G5 Vai depressa, mais depressa, mais depressa Solo A5 E5 F5 E5 G5 E5 F5 E5 G5 E5
Solo 
                        
E|--5----------------------------------------| 
B|--8b-------------8--5----------------------| 
G|-------------------------------------------| 
D|-------------------------------------------| 
A|-------------------------------------------| 
E|-------------------------------------------| 
                     
E|-------------------------------------------| 
B|--6----5-------5----5----------------------| 
G|------------7------------------------------| 
D|-------------------------------------------| 
A|-------------------------------------------| 
E|-------------------------------------------| 

     T          T     T     T     T    T             
E|--7p-0h-3p-0-7p-0h-7p-0-15p-0h-7p-0-7p-0h-3p-0-| 
B|-----------------------------------------------| 
G|-----------------------------------------------| 
D|-----------------------------------------------| 
A|-----------------------------------------------| 
E|-----------------------------------------------| 

  T          T     T    T     T    T                
E|--8p-0h-3p-0-8p-0h-8p-0-3p-0h-8p-0-8p-0h-3p-0-| 
B|----------------------------------------------| 
G|----------------------------------------------| 
D|----------------------------------------------| 
A|----------------------------------------------| 
E|----------------------------------------------| 

      T           T      T    T      T     T                                                     
E|--10p-0h-3p-0-10p-0h-10p-0-3p-0h-10p-0-10p-0h-3p-0----10b----------------| 
B|-------------------------------------------------------------------------| 
G|-------------------------------------------------------------------------| 
D|-------------------------------------------------------------------------| 
A|-------------------------------------------------------------------------| 
E|-------------------------------------------------------------------------| 
                      
E|--10----------------8----------------------| 
B|-------------------------------------------| 
G|-------------------------------------------| 
D|-------------------------------------------| 
A|-------------------------------------------| 
E|-------------------------------------------| 
                
E|--8-8-8--7-------------------------------------------| 
B|------------10--6------------------------------------| 
G|-------------------9--7------------------------------| 
D|-------------------------9~----------------9~--------| 
A|-----------------------------------------------------| 
E|-----------------------------------------------------| 
   
E|--------------------------------------------------| 
B|--12h-13h-15--12h-13h-15--12h-13h-15--12h-13h-15--| 
G|--------------------------------------------------| 
D|--------------------------------------------------| 
A|--------------------------------------------------| 
E|--------------------------------------------------| 
      
E|---------------------------------------------------| 
B|--12h-13h-15--12h-13h-15--12h-13h-15--12h-13h-15s--| 
G|---------------------------------------------------| 
D|---------------------------------------------------| 
A|---------------------------------------------------| 
E|---------------------------------------------------| 

E|--------------------------------------------------------------------| 
B|--17~-------------------17b--------15~-----------17~----------------| 
G|--------------------------------------------------------------------| 
D|--------------------------------------------------------------------| 
A|--------------------------------------------------------------------| 
E|--------------------------------------------------------------------| 
A5 F5 G5 E o sangue corre, corre A5 F5 G5 Vai depressa, mais depressa, mais depressa A5 F5 G5 E o sangue corre, corre A5 F5 G5 Vai depressa, mais depressa, mais depressa

Compartilhe esta música: novo

QR Code
Copiar