A Carapuça Serviu

Carapuça

Tom: Em
(Riff 1) 

     D5 D5 F5 E5   D5 E5 
E|--------------------------| 
B|--------------------------| 
G|--------------------------| 
D|--7--7--10--9----7--9-----| 
A|--5--5---8--7----5--7-----| 
E|--5--5---8--7----5--7-----|
D5 D5 F5 E5 D5 E5 A carapuça D5 D5 F5 E5 D5 E5 Serviu! D5 D5 F5 E5 D5 E5 A carapuça D5 D5 F5 E5 D5 E5 Serviu! ( D5 D5 F5 E5 D5 E5 ) (4x)
     B5                                             E5     
E|-------------------------|--------------------------| 
B|-------------------------|--------------------------| 
G|-------------------------|--------------------------| 
D|--4----------------------|-----------------------2--| 
A|--2----2--2--2--2--2--2--|--2--2--2--2--2--2--2--2--| 
E|--2----2--2--2--2--2--2--|--2--2--2--2--2--2--2--0--| 

                              E5      E5      E5                           
E|-------------------------|-----------------------| 
B|-------------------------|-----------------------| 
G|-------------------------|-----------------------| 
D|-------------------------|--2-------2-------2----| 
A|-------2--2--2--2--2--2--|--2-------2-------2----| 
E|-------2--2--2--2--2--2--|--0-------0-------0----|
B5 Vem! Nesse mundo tem que ter coragem E5 B5 E5 E5 E5 Não! Os fracos não tem vez B5 Tem inimigos E5 B5 E5 E5 E5 Estão por toda parte pra tentar B5 1 - Pode ser quem você confia E5 B5 E5 E5 E5 B5 2 - Podem te destruir B5 3 - Com um sorriso falso moralista E5 B5 E5 E5 E5 Vão! Ferrar!!
     F#5                                F#5       E5                  
E|--------------------|-----------------------|-----------------| 
B|--------------------|-----------------------|-----------------| 
G|--11----------------|----------------11s----|--9--------------| 
D|--11----------------|----------------11s----|--9--------------| 
A|---9----------------|-----------------9s----|--7--------------| 
E|---9----------------|-----------------9s----|--7--------------| 
                  E5       D5                        
E|----------------------|-------------------|-------------------| 
B|----------------------|-------------------|-------------------| 
G|----------------9s----|--7----------------|-------------------| 
D|----------------9s----|--7----------------|-------------------| 
A|----------------7s----|--5----------------|-------------------| 
E|----------------7s----|--5----------------|-------------------|
F#5 E5 A ganância é apenas o começo pra ferir você D5 Fique esperto com o contra-ataque G5 F#5 E5 G5 F#5 E5 Pra pegá-los até ganhar G5 F#5 E5 G5 F#5 E5 Pra cansá-los até ganhar G5 F#5 E5 G5 F#5 E5 E5 Pra cansá-los até ganhar
     G#5         F#5   E5                    C#5 
E|-----------------------|---------------------| 
B|-----------------------|---------------------| 
G|-----------------------|---------------------| 
D|--6-----------4-----2--|---------------------| 
A|--6-----------4-----2--|------------------4--| 
E|--4-----------2-----0--|------------------4--| 

        E5    E5    E5 C#5   E5 C#5  E5   C#5 E5 C#5 
E|-------------------------|------------------------| 
B|-------------------------|------------------------| 
G|-------------------------|------------------------| 
D|-------2-----2-----2-----|--2-------2-------2-----| 
A|-------2-----2-----2--4--|--2--4----2----4--2--4--| 
E|-------0-----0-----0--4--|--0--4----0----4--0--4--|
G#5 F#5 E5 C#5 Ah você vai E5 E5 E5 C#5 E5 C#5 E5 C#5 E5 C#5 Pra essa vida de injustiças G#5 F#5 E5 C#5 E5 E5 E5 C#5 E5 C#5 E5 C#5 E5 C#5 Querer mudar, ou senão vou forçar a barra G#5 F#5 E5 Onde está? C#5 E5 E5 E5 C#5 E5 C#5 E5 C#5 E5 C#5 Sua coragem, sua força G#5 F#5 E5 C#5 E5 E5 E5 C#5 E5 C#5 E5 C#5 E5 C#5 Pra encarar e marcar sua vida toda? D5 D5 F5 E5 D5 E5 A carapuça D5 D5 F5 E5 D5 E5 Serviu! D5 D5 F5 E5 D5 E5 A carapuça D5 D5 F5 E5 D5 E5 Serviu! ( D5 D5 F5 E5 D5 E5 )(4x) B5 Vem! A realidade aqui é dura E5 B5 E5 E5 E5 Não pense em desistir B5 Vem! Se você sumir ninguém se importa E5 B5 E5 E5 E5 Vão Negar! B5 1 - Se segure e não dê motivo E5 B5 E5 E5 E5 2 - Preste bem atenção B5 E5 B5 E5 E5 E5 3 - Elabore bem um novo plano pra pegar! F#5 E5 A inveja é apenas o começo pra ferir você D5 Fique esperto com o contra-ataque G5 F#5 E5 G5 F#5 E5 Se cair, vai levantar G5 F#5 E5 G5 F#5 E5 Pra pegá-los até ganhar G5 F#5 E5 G5 F#5 E5 E5 Pra cansá-los até ganhar G#5 F#5 E5 C#5 Ah você vai E5 E5 E5 C#5 E5 C#5 E5 C#5 E5 C#5 Pra essa vida de injustiças G#5 F#5 E5 C#5 E5 E5 E5 C#5 E5 C#5 E5 C#5 E5 C#5 Querer mudar, ou senão vou forçar a barra G#5 F#5 E5 Onde está? C#5 E5 E5 E5 C#5 E5 C#5 E5 C#5 E5 C#5 Sua coragem, sua força G#5 F#5 E5 C#5 E5 E5 E5 C#5 E5 C#5 E5 C#5 E5 C#5 Pra encarar e marcar sua vida toda? D5 D5 F5 E5 D5 E5 A carapuça D5 D5 F5 E5 D5 E5 Serviu! D5 D5 F5 E5 D5 E5 A carapuça D5 D5 F5 E5 D5 E5 Serviu! ( D5 D5 F5 E5 D5 E5 ) (8x) G5 F#5 E5 G5 F#5 E5 Se cair, vai levantar G5 F#5 E5 G5 F#5 E5 Pra pegá-los até ganhar G5 F#5 E5 G5 F#5 E5 E5 Pra cansá-los até ganhar G#5 F#5 E5 C#5 Ah você vai E5 E5 E5 C#5 E5 C#5 E5 C#5 E5 C#5 Pra essa vida de injustiças G#5 F#5 E5 C#5 E5 E5 E5 C#5 E5 C#5 E5 C#5 E5 C#5 Querer mudar, ou senão vou forçar a barra G#5 F#5 E5 Onde está? C#5 E5 E5 E5 C#5 E5 C#5 E5 C#5 E5 C#5 Sua coragem, sua força G#5 F#5 E5 C#5 E5 E5 E5 C#5 E5 C#5 E5 C#5 E5 C#5 Pra encarar e marcar sua vida toda? G#5 F#5 E5 Ah você vai

Compartilhe esta música: novo

QR Code
Copiar