Primeiros ErrosCifra Verificada

Capital Inicial

Tom: D
		 

Intro 2x: D9  A/C#  G/B 

Riff 1: 
E|--0------0------------0-------0------0------0-| 
B|-10----10------------9-------9------9------9--| 
G|-11--11-----11-11-11-------11-----11-----11---|    (2x) 
D|-12-------------------------------------------| 
A|----------------------------------------------| 
E|----------------------------------------------| 

Riff 2: 
E|---0--0----0----0--0--0---0--0--0----0--0--| 
B|--10---10---10--5---5--5--3---3--3----3--3-| 
G|--11-----11-----6----6----4----4----4--4---|   (2x) 
D|--12------------7---------5----------------| 
A|-------------------------------------------| 
E|-------------------------------------------| 

Solo: 
E|2-2-2--0-2-0---5-0-5-0---2-0-2-0---2-0-2-0| 
B|------------------------3--------3--------| 
G|------------------------------------------|    (2x) (Junto ao Riff 2) 
D|------------------------------------------| 
A|------------------------------------------| 
E|------------------------------------------| 


Intro: ( Riff 1 + Riff 2 ) 

D     D9            D 
Meu caminho é cada manhã 
        D9               Bm 
Não procure saber onde estou 

Meu destino não é de ninguém 
        A7                       D 
Eu não deixo os meus passos no chão 
    D9                  D 
Se você não entende não vê 
          D9       Bm 
Se não me vê não entende 

Não procure saber onde estou 
                       G 
Se o meu jeito te surpreende 

         G/D              G 
Se o meu corpo virasse sol 
          G/D           Em 
Se minha mente virasse sol 
        Em7          Em 
Mas só chove e chove 
        Em7   D   A/C# G/B (2x) 
Chove e chove 

(Riff 2) 

 D      D9             D 
Se um dia eu pudesse ver 
       D9      Bm 
Meu passado inteiro 

E fizesse parar chover 
                 G 
Nos primeiros erros 

      G/D            G 
Meu corpo viraria sol 
        G/D         Em 
Minha mente viraria... 
        Em7         Em 
Mas só chove e chove 
  Em7         D  D9 D 
Chove e chove 

Final: (Intro / Parte 1 / Parte 2 ) 

E|---0------0--------------0------0------0--0-| 
B|--10----10-------------9-------9------9--10-| 
G|--11--11-----11-11-11-------11-----11----11-| 
D|--12-------------------------------------12-| 
A|--------------------------------------------| 
E|--------------------------------------------| 


Compartilhe esta música: novo

QR Code
Copiar