Não Olhe Pra TrásCifra Verificada

Capital Inicial

Tom: G
Intro: G  Am7  C 
       G  Am7  C  Am7 

E|--------------------------------------------------- 
B|--------------------------------------------------- 
G|--------------------------------------------------- 
D|-9-5h7-5---5-5---9-5h7-7---5-5---9-5h7-5---9------- 
A|---------7---------------7---------------9--------- 
E|--------------------------------------------------- 

E|--------------------------------------------------- 
B|--------------------------------------------------- 
G|--------------------------------------------------- 
D|-7/9-9-7-7h9-7-5-5--------------------------------- 
A|--------------------------------------------------- 
E|---------------------------------------------------
G Am7 Nem tudo é como você quer Bm7 Am7 Nem tudo pode ser perfeito G Am7 Pode ser fácil se você Bm7 Am7 Ver o mundo de outro jeito
       C               G4/B 
E|----------------------------------------- 
B|---------1-------1-------0-------0------- 
G|-----------0-------0-------0-------0----- 
D|-------2-----2---------0-----0----------- 
A|-0-2-3---------3-----2---------2--------- 
E|----------------------------------------- 
   Am7 
E|-0-------3-3-3-3-3----------------------- 
B|-1-1-----1-1-1-1-1----------------------- 
G|-2---2---2-2-2-2-2----------------------- 
D|-2-----2-2-2-2-2-2----------------------- 
A|-0-------0-0-0-0-0----------------------- 
E|----------------------------------------- 
C G4/B Se o que é errado ficou certo Am7 As coisas são como elas são C G4/B Se inteligência ficou cega Am7 De tanta informação
   G 
E|-3-3-3----------------------------------- 
B|-3-3-3----------------------------------- 
G|-0-0-0---------------0------------------- 
D|-0-0-0-------0--0h2---------------------- 
A|-2-2-2--0h2------------------------------ 
E|-3-3-3----------------------------------- 
G Am7 Se não faz sentido C Discorde comigo G Não é nada demais Am7 São águas passadas C Escolha uma estrada G Am7 C e não olhe, não olhe pra trás
G Am7 Você quer encontrar a solução Bm7 Am7 Sem ter nenhum problema G Am7 Insistir em se preocupar demais Bm7 Am7 Cada escolha é um dilema C G4/B Am7 Como sempre estou mais do seu lado que você C G4/B Siga em frente em linha reta Am7 E não procure o que perder
G Am7 Se não faz sentido C Discorde comigo G Não é nada demais Am7 São águas passadas C Escolha uma estrada G e não olhe, não olhe pra trás
Solo 4x: G Am7 C G
E|--------------------------------------------------- 
B|-----8~-----8~-10b12-10b12-10b12-8~-----8---------- 
G|-9-9----9-9-------------------------7h9------------ 
D|--------------------------------------------------- 
A|--------------------------------------------------- 
E|--------------------------------------------------- 

E|--------------------------------------------------- 
B|-------8~-------8~-10b12-10b12r10-8~-----8--------- 
G|-7h9-9----7h9-9----------------------7h9----------- 
D|--------------------------------------------------- 
A|--------------------------------------------------- 
E|--------------------------------------------------- 

E|-------------------10----10----10------------------ 
B|-------8~-------8~-10b12-10b12-10b12-8~-----8------ 
G|-7h9-9----7h9-9-------------------------7h9-------- 
D|--------------------------------------------------- 
A|--------------------------------------------------- 
E|--------------------------------------------------- 

E|--------------------------------------------------- 
B|-------8~-------8~-10b12-10b12r10-8~--------------- 
G|-7h9-9----7h9-9------------------------------------ 
D|--------------------------------------------------- 
A|--------------------------------------------------- 
E|---------------------------------------------------

Compartilhe esta música: novo

QR Code
Copiar