Bariátrico

Cabeça de Diplodocus

Tom: F#m
F#m       G 
Bariátrico 
F#m       G 
Bariátrico 
F#m       G 
Bariátrico 
F#m       G 
Bariátrico 
F#m       G 
Bariátrico 
F#m       G 
Bariátrico 
F#m       G 
Bariátrico 
F#m       G 
Bariátrico 



F#m7       G7 
Bariátrico 
F#m7       G7 
Bariátrico 
F#m7       G7 
Bariátrico 
F#m7       G7 
Bariátrico 
F#m7       G7 
Bariátrico 
F#m7       G7 
Bariátrico 
F#m7       G7 
Bariátrico 
F#m7       G7 
Bariátrico 

F#5       G5 
Bariátrico 
F#5       G5 
Bariátrico 
F#5       G5 
Bariátrico 
F#5       G5 
Bariátrico 
F#5       G5 
Bariátrico 
F#5       G5 
Bariátrico 
F#5       G5 
Bariátrico 
F#5       G5 
Bariátrico 

Solo: 

Guitarra Base 
F#5	G5 

Guitarra 1 
 
E|-------------------------------------------- 
B|-------------------------------------------- 
G|-------------------------------------------- 
D|-------------------------------------------- 
A|---4--6--7--6--4---4------------------------ 
E|---2--4--5--4--2---2------------------------ 
 

Guitarra 2 
 
E|-------------------------------------------- 
B|-------------------------------------------- 
G|-------------------------------------------- 
D|---4--6--7--6--4---4------------------------ 
A|-------------------------------------------- 
E|---2--4--5--4--2---2------------------------ 
 


Guitarra 3 

 
E|-------------------------------------------- 
B|---7--9--10-9--7---7------------------------ 
G|---6--8--9--8--6---6------------------------ 
D|---4--6--7--6--4---4------------------------ 
A|-------------------------------------------- 
E|-------------------------------------------- 
 

Guitarra 4 

 
E|-------------------------------------------- 
B|---7--9--10-9--7---7------------------------ 
G|---6--8--9--8--6---6------------------------ 
D|---4--6--7--6--4---4------------------------ 
A|-------------------------------------------- 
E|-------------------------------------------- 
 

Guitarra Solo 

 
E|-------------------------------------------- 
B|---7--9--10-9--7---7------------------------ 
G|-------------------------------------------- 
D|--------------------------------------------  2x 
A|-------------------------------------------- 
E|-------------------------------------------- 
 


 
E|---14h16-17-16-14--------14h16-17p16p14--14- 
B|-------------------------------------------- 
G|-------------------------------------------- 
D|-------------------------------------------- 
A|-------------------------------------------- 
E|-------------------------------------------- 
F#m G Bariátrico F#m G Bariátrico F#m G Bariátrico F#m G Bariátrico F#m G Bariátrico F#m G Bariátrico F#m G Bariátrico F#m G Bariátrico ôoooooooooooo pausa de 5 segundos PERÂ AÊ QUE TEM MAIS F#m G Bariátrico F#m G Bariátrico F#m G Bariátrico F#m G Bariátrico F#m G Bariátrico F#m G Bariátrico F#m G Bariátrico F#m G Bariátrico ôoo oooooooooooooo

Compartilhe esta música: novo

QR Code
Copiar