La Luna En Ti

Burdel King

Tom: F
 
Intro: F  C G A# F C A# G 

e|-----------------------------------------------| 
B|-----------1-1---------------------------------| 
G|-------0-2-----3-2-0-------------3---3-2-0-----| 
D|-3-3-3---------------0-0---0-2-3---------------| 
A|-----------------------------------------------| 
E|-----------------------------------------------| 

e|----------------------------------| 
B|---------------1-1-3-5-5(6)-3-1-3-| 
G|-----------0-2--------------------| 
D|-3---3-3-3------------------------| 
A|----------------------------------| 
E|----------------------------------| 

F C G Cuando al amor se le muda la piel A F A la rutina la cara se ve C A# Si una sonrisa se viste de hiel G Es muy mal asunto, amor. F C Te prometo que cada beso A A# G Un contrato indefinido será F C Quiero beber de tus miradas A# C Quiero envejecer junto a ti. F A# A A# A Bajaré hasta el mismo infierno para hacerte feliz A# C Seré el sol en tu invierno. Seré la luna en ti.
e|------------------------------------------------| 
B|-----------1-1----------------------------------| 
G|-------0-2-----3-2-0-------------3---3-2-0------| 
D|-3-3-3---------------0-0---0-2-3----------------| 
A|------------------------------------------------| 
E|------------------------------------------------| 

e|----------------------------------| 
B|---------------1-1-3-5-5(6)-3-1-3-| 
G|-----------0-2--------------------| 
D|-3---3-3-3------------------------| 
A|----------------------------------| 
E|----------------------------------| 

F C G Cuando el silencio se acuesta entre dos A# F Nacen fronteras sobre el edredón. C A# Cuando a los besos se les ve la piel G Hay que volver al ayer. F C Hoy la luna me ha contado A A# G que duermes siempre bajo su luz, F C su vestido me ha prestado, A# C voy a ser la luna en ti. F A# A A# A Bajaré hasta el mismo infierno, para hacerte feliz, A# C seré sol en tu invierno, seré la luna en ti. F A# A A# A Volaré hasta el fin del mundo, para traer su luz, A# C no importa si me hundo, ¡Mi brújula eres tú!
e|---------------------------------------| 
B|---------------------------------------| 
G|--------12-14-14(16)-14---12----12-----| 
D|-/16-16----------------------16----14--| 
A|---------------------------------------| 
E|---------------------------------------| 

e|----------------------------------------| 
B|----------------------------------------| 
G|----------------------------------------| 
D|-14-12-14-14(15)(15)14-12-14-12---14-12-| 
A|----------------------------------------| 
E|----------------------------------------| 

e|----------------------------------------| 
B|----------------------------------------| 
G|--------------------------12---14-12----| 
D|-14------------12---14-16------------14-| 
A|----14---14-16--------------------------| 
E|----------------------------------------| 




e|--------------------------| 
B|----------18-17---18-20---| 
G|-17-19-21-----------------| 
D|--------------------------| 
A|--------------------------| 
E|--------------------------| 

F A# A A# A Soñaré besos que he olvidado en un rincón de ti A# C Tu alma es tu despensa quiero comer de ti F A# A A# A Volaré hasta el fin del mundo, para traer su luz, A# C no importa si me hundo, ¡Mi brújula eres tú! F A# A A# A Bajaré hasta el mismo infierno, para hacerte feliz A# C seré sol en tu invierno, seré la luna en ti.
e|------------------------------------------------| 
B|-----------1-1----------------------------------| 
G|-------0-2-----3-2-0-------------3---3-2-0------| 
D|-3-3-3---------------0-0---0-2-3----------------| 
A|------------------------------------------------| 
E|------------------------------------------------| 

e|----------------------------------| 
B|---------------1-1-3-5-5(6)-3-1-3-| 
G|-----------0-2--------------------| 
D|-3---3-3-3------------------------| 
A|----------------------------------| 
E|----------------------------------| 

Compartilhe esta música: novo

QR Code
Copiar