Quatro Fases

Bruno e Marrone

Tom: C
Intro F9  C  F9  C 

E|------------------------------------------| 
B|-5h6-5---5h6-5----5h6-5---5h6-5-----------| 
G|-------5-------5--------5-------5---------| 
D|------------------------------------------| 
A|------------------------------------------| 
E|------------------------------------------|
E|------------------------------------------| 
B|-6/8-10-8---5h6-5-6-8/13-13~--------------| 
G|------------------------------------------| 
D|------------------------------------------| 
A|----------8-------------------------------| 
E|------------------------------------------|
Primeira Parte F9 Você sabe que eu te amo Dm E que não preciso provar nada a ninguém C Também sabe dos meus planos Inclusive que eu não consigo ficar sem Pré-Refrão Dm Seu beijo F9 C Ele me acalma até quando meu nível de estresse tá mais alto Sabe o meu ponto fraco Dm F9 Seu jeito as vezes calmo Muito as vezes fica agitado C G Isso que me deixa cem por cento encantado
Dm De lua em lua você também muda suas fases F Não tem uma você tem É 4 fases C Ciumenta, emotiva e revoltada Falta uma Dm F Apaixonada em mim
Solo C F9 C
E|------------------------------------------| 
B|-5h6-5---5h6-5----5h6-5---5h6-5-----------| 
G|-------5-------5--------5-------5-5-------| 
D|------------------------------------------| 
A|------------------------------------------| 
E|------------------------------------------|
Pré-Refrão Dm Seu beijo F9 C Ele me acalma até quando meu nível de estresse tá mais alto Sabe o meu ponto fraco Dm F9 Seu jeito as vezes calmo Muito as vezes fica agitado C G Isso que me deixa cem por cento encantado
Dm De lua em lua você também muda suas fases F Não tem uma você tem É 4 fases C Ciumenta, emotiva e revoltada Falta uma Dm F Apaixonada em mim
Final C
E|------------------------------------------| 
B|-5h6-5---5h6-5----5h6-5-------------------| 
G|-------5-------5--------5---5-------------| 
D|--------------------------5---------------| 
A|------------------------------------------| 
E|------------------------------------------|

Compartilhe esta música: novo

QR Code
Copiar