Boate AzulCifra Verificada

Bruno e Marrone

Tom: Am
Intro: Dm  G  C  F  Dm  E  Am  A7    
       Dm  G  C  F  Dm  E  Am    

E|-1-1-1-0-1-0-1--------------0---0---0-------|    
B|---------------1-0----0-1-3---3---3---0-----|    
G|----------------------------------------2---|    
D|--------------------------------------------|    
A|--------------------------------------------|    
E|--------------------------------------------|    

E|-----------------------------------0--------|    
B|---0-1-3-1-3-1-3-------0-1-0-1-2-3----------|    
G|-2---------------2-1-2----------------------|    
D|--------------------------------------------|    
A|--------------------------------------------|    
E|--------------------------------------------|    

E|-1-0-1-0-1-3/5-3---------0---0---0-1/3-1----|    
B|-------------------0-1-3---3---3------------|    
G|--------------------------------------------|    
D|--------------------------------------------|    

E|-----------------------4-5/7-5--------------|    
B|---0-1-3-1-3-1-3-5/6-5----------------------|    
G|-2------------------------------------------|    
D|--------------------------------------------|    
A|--------------------------------------------|    
E|--------------------------------------------|    

Verso 1:

Am G Doente de amor procurei remédio na vida noturna F E Com a flor da noite em uma boate aqui na zona sul Dm Am A dor do amor é com outro amor que a gente cura E Am A7 Vim curar a dor desse mal de amor na boate azul Dm Am E quando a noite vai se agonizando no clarão da aurora E Am A7 Os integrantes da vida noturna se foram dormir Dm Am E a dama da noite que estava comigo também foi embora F E A Fecharam-se as portas, sozinho de novo tive que sair
A E Sair de que jeito, D A Se nem sei o rumo para onde vou E Muito vagamente me lembro que estou D A Em uma boate aqui na zona sul E Eu bebi demais D A E não consigo me lembrar sequer E Qual era o nome daquela mulher D E A A7 A flor da noite na boate azul.
Dm Am A dor do amor é com outro amor que a gente cura E Am A7 Vim curar a dor desse mal de amor na boate azul Dm Am E quando a noite vai se agonizando no clarão da aurora E Am A7 Os integrantes da vida noturna se foram dormir Dm Am E a dama da noite que estava comigo também foi embora F E A Fecharam-se as portas, sozinho de novo tive que sair
A E Sair de que jeito, D A Se nem sei o rumo para onde vou E Muito vagamente me lembro que estou D A Em uma boate aqui na zona sul E Eu bebi demais D A E não consigo me lembrar sequer E Qual era o nome daquela mulher D E A A7 A flor da noite na boate azul. A E Sair de que jeito, D A Se nem sei o rumo para onde vou E Muito vagamente me lembro que estou D A Em uma boate aqui na zona sul E Eu bebi demais D A E não consigo me lembrar sequer E Qual era o nome daquela mulher D E A A flor da noite na boate azul.

Compartilhe esta música: novo

QR Code
Copiar