Rattle Buzz

Brian Blunt

Tom: C
 
 
 Repo takes everything there ever was  
  but they can’t touch my Rattle & Buzz 

|----------------------------------------------------------------| 
|----------------------------------------------------------------| 
|----------------------------------------------------------------| 
|----------0h2-0------------------------0h2-0--------------------| 
|----0-3----------3-0------------0-3----------3------------------| 
|-3----------------------------3---------------------------------| 

|----------------------------------------------------------------| 
|----------------------------------------------------------------| 
|----------------------------------------------------------------| 
|----------0h2-0------------------------0h2-0--------------------| 
|----0-3----------3-0------------0-3----------3------------------| 
|-3----------------------------3---------------------------------| 

|----------------------------------------------------------------| 
|----------------------------------------------------------------| 
|----------0h2-0------------------------0h2-0--------------------| 
|----0-3----------3-0-----------0-3----------3-------------------| 
|-3---------------------------3----------------------------------| 
|----------------------------------------------------------------| 

|----------------------------------------------------------------| 
|----------------------------------------------------------------| 
|----------------------------------------------------------------| 
|----------0h2-0------------------------0h2-0--------------------| 
|----0-3----------3-0------------0-3----------3------------------| 
|-3-----------------------------3--------------------------------| 
G A C Way back home, Csus2 C I got an ol guitar G A C Sitting on a stand, Csus2 C inside my house G A C When I'm home Csus2 C an I get the feeling G A C I tune it up Csus2 C and rip one out F Rattle & buzz (Alt bass string F-C-F) just my ol box guitar C-G-C) My Girl beside me on the couch F Rattle & buzz (Alt bass string F-C-F) An A sip from a shine jar G G G G G I hear a melody an I pick it out
|----------------------------------------------------------------| 
|----------------------------------------------------------------| 
|----------------------------------------------------------------| 
|----------0h2-0------------------------0h2-0--------------------| 
|----0-3----------3-0------------0-3----------3------------------| 
|-3----------------------------3---------------------------------| 

|----------------------------------------------------------------| 
|----------------------------------------------------------------| 
|----------------------------------------------------------------| 
|----------0h2-0------------------------0h2-0--------------------| 
|----0-3----------3-0------------0-3----------3------------------| 
|-3----------------------------3---------------------------------| 
G A C Once in a while Csus2 C my buddies come over G A C A snack ta share Csus2 C and a bottle in a sack G A C Rattle & buzz Csus2 C gets a little workout G A C Pass it on around Csus2 C til my turn comes back F Rattle & buzz (Alt bass string F-C-F) just my ol box guitar C-G C) My girl beside me on the couch F Rattle & buzz (Alt bass string F-C-F) An A sip from a shine jar G G G G G I hear a melody an I pick it out
|----------------------------------------------------------------| 
|----------------------------------------------------------------| 
|----------------------------------------------------------------| 
|----------0h2-0------------------------0h2-0--------------------| 
|----0-3----------3-0------------0-3----------3------------------| 
|-3----------------------------3---------------------------------| 

|----------------------------------------------------------------| 
|----------------------------------------------------------------| 
|----------------------------------------------------------------| 
|----------0h2-0------------------------0h2-0--------------------| 
|----0-3----------3-0------------0-3----------3------------------| 
|-3----------------------------3---------------------------------| 

|----------------------------------------------------------------| 
|----------------------------------------------------------------| 
|----------0h2-0------------------------0h2-0--------------------| 
|----0-3----------3-0-----------0-3----------3-------------------| 
|-3---------------------------3----------------------------------| 
|----------------------------------------------------------------| 

|----------------------------------------------------------------| 
|----------------------------------------------------------------| 
|----------------------------------------------------------------| 
|----------0h2-0------------------------0h2-0--------------------| 
|----0-3----------3-0------------0-3----------3------------------| 
|-3-----------------------------3--------------------------------| 
G A C One hot day Csus2 C havin us a yard sale G A D Rattle & buzz Csus2 C on my lap on the step G A D Man came along Csus2 C said he'd give a hunerd dollars G A C I think I'll keep Csus2 C it for myself F Rattle & buzz (Alt bass string F-C-F) just my ol box guitar C-G-C) My Girl beside me on the couch F Rattle & buzz (Alt bass string F-C-F) An A sip from a shine jar G G G G G I hear a melody an I pick it out
|----------------------------------------------------------------| 
|----------------------------------------------------------------| 
|----------------------------------------------------------------| 
|----------0h2-0------------------------0h2-0--------------------| 
|----0-3----------3-0------------0-3----------3------------------| 
|-3----------------------------3---------------------------------| 

|----------------------------------------------------------------| 
|----------------------------------------------------------------| 
|----------------------------------------------------------------| 
|----------0h2-0------------------------0h2-0--------------------| 
|----0-3----------3-0------------0-3----------3------------------| 
|-3----------------------------3---------------------------------| 
G A C When I die Csus2 C Dont ya bury it with me G A C Leave it on a stand Csus2 C Inside my house G A C once in a while Csus2 C Friends can stop over G A C Tune it up Csus2 C and rip one out F Rattle & buzz (Alt bass string F-C-F) just my ol box guitar C-G C) My girl listnin’ on the couch F Rattle & buzz (Alt bass string F-C-F) An A sip from a shine jar G G G G G I hear a melody an I pick it out
|----------------------------------------------------------------| 
|----------------------------------------------------------------| 
|----------------------------------------------------------------| 
|----------0h2-0------------------------0h2-0--------------------| 
|----0-3----------3-0------------0-3----------3------------------| 
|-3----------------------------3---------------------------------| 

|----------------------------------------------------------------| 
|----------------------------------------------------------------| 
|----------------------------------------------------------------| 
|----------0h2-0------------------------0h2-0--------------------| 
|----0-3----------3-0------------0-3----------3------------------| 
|-3----------------------------3---------------------------------| 

|----------------------------------------------------------------| 
|----------------------------------------------------------------| 
|----------0h2-0------------------------0h2-0--------------------| 
|----0-3----------3-0-----------0-3----------3-------------------| 
|-3---------------------------3----------------------------------| 
|----------------------------------------------------------------| 

|----------------------------------------------------------------| 
|----------------------------------------------------------------| 
|----------------------------------------------------------------| 
|----------0h2-0------------------------0h2-0--------------------| 
|----0-3----------3-0------------0-3----------3------------------| 
|-3-----------------------------3--------------------------------|

Compartilhe esta música: novo

QR Code
Copiar