Wanted dead or AliveCifra Verificada

Bon Jovi

Tom: D
Intro:  

 e|-----13---------12----------10--------8-------5---------3/--1--|  
 B|----------------------------------------------------------------|  
 G|---14--14----12---12-----10---10---9---9---5---5-----4--/--2--|  
 D|-0--------0-----------0-----------0-------0------0--0----------|  
 A|----------------------------------------------------------------|  
 E|----------------------------------------------------------------|  




 e|---------------0--------------------------0------------------------------|  
 B|-----------------3---3----------------------3---3------------------------|  
 G|-------------------2---2----------------------2---2----------------------|  
 D|--------0-3-0------------0---------0-3-0------------0---------0-3-0-----|  
 A|-0-0-3----------------------0-0-3----------------------0-0-3-------------|  
 E|--------------------------------------------------------------------------|  



 e|--0-----------------------0----------------------------------------|  
 B|---3---3--------------------3---3--------------------1-----3-------|  
 G|-----2---2--------------------2---2------------------2-----2-------|  
 D|-----------0--------0-3-0------------0---------------3-----0-------|  
 A|--------------0-0-3----------------------3------3------------------|  
 E|--------------------------------------------------------------------|  

D D9 D4 D C9 G It's all the same, only the names will change C9 G C9 F D Everyday, seem we're wasting away D C9 G Another place where the faces are so cold C9 G C9 F D I'd trave all night just to get back home
C9 G F D I'm a cowboy, on a steel horse I ride C9 G wanted dead or alive C G F D Wanted,Wanted dead or alive
Intro D C9 G C9 F D
C9 G F D I'm a cowboy, on a steel horse I ride C9 G wanted dead or alive C G F D Wanted,Wanted dead or alive (2x)
D C G Sometimes I sleep, sometimes it's not for days C G F D And the people I meet always go their separate ways D C G Sometimes you tell the day by the bottle that you drink C G F D And times when you're alone all you do is think D C9 G I walk these streets, a loaded six string on my back C G F D I play for keeps, 'cause I might not make it back D C9 G I been everywhere, still I'm standing tall C9 G F D I've seen a million faces and I've rocked them all C9 G F D I'm a cowboy, on a steel horse I ride C9 G F D Wanted, wanted dead or alive C9 G F D I'm a cowboy, I got the night on my side C9 G F D Wanted, wanted dead or alive C9 G C9 G D dead or alive, Dead or alive

Compartilhe esta música: novo

QR Code
Copiar