Immer Auf Der Suche

Boehse Onkelz

Tom: Db
Intro: 
   Dm       Dmsus2   Dmsus4   Dm 
eb|1-------|0-------|3-------|1-------| 
Bb|3-------|3-------|3-------|3-------| 
Gb|2-------|2-------|2-------|2-------| 
Db|0-------|0-------|0-------|0-------| 
Ab|--------|--------|--------|--------| 
Db|--------|--------|--------|--------| 


Intro 2: 
   Dm                         Bb   F C 
eb|--------|--------|--------|---------| 
Bb|--------|--------|--------|---------| 
Gb|--77--7-|--77--7-|--77--7-|3-3/10-5-| 
Db|--------|--------|--------|3-3/10-5-| 
Ab|55--5---|55--5---|55--5---|1-1/-8-3-| 
Db|--------|--------|--------|---------| 
  | 
eb|--------|--------|--------|---------| 
Bb|--------|--------|--------|---------| 
Gb|--------|--------|--------|3-3/10-5-| 
Db|--------|--------|--------|3-3/10-5-| 
Ab|--55--5-|--55--5-|--55--5-|1-1/-8-3-| 
Db|00--0---|00--0---|00--0---|---------| 
Verse: Dm Dmsus4 Die Nacht ist denen, Dmsus2 Dm die sie sich nehmen. Bb 50 Gramm Wodka bringen mich zurück ins Leben. Dm Dmsus4 Dmsus2 Dm Ich bin Aficionado - Spirituose, Bb auf der Suche nach mir selbst und der Ganzkörper-Narkose
F C Ich bin Dm F Immer auf der Suche nach 'ner guten Zeit, G Bb die Nacht ist lang und ich bin bereit. Dm F Immer auf der Suche nach 'ner guten Zeit, G Bb der Rest ergibt sich von allein. Dm F Immer auf der Suche nach 'ner guten Zeit G Bb Immer auf der Suche nach 'ner guten Zeit Dm F Viel Speed, kein Ziel und immer im Kreis
                                             eb--|--------|--------|
                                             Bb--|--------|--------| 
                                             Gb--|--------|--------| 
                                             Db-5|-------5|--------| 
                                             Ab--|-55-5---|-55-5---| 
                                             Db--|--------|--------| 
                                                 | 
                                             eb--|--------|--------| 
                                             Bb--|--------|--------| 
                                             Gb--|--------|--------| 
                                             Db--|--------|--------| 
                                             Ab--|--------|--------| 
                                             Db-5|-00-0--5|-00-0---| 
Interlude - Wie Intro 2 - Verse: Dm Dmsus4 Dmsus2 Ich jage durch die Nacht, in der das Gute schläft Dm Und das Böse erwacht Bb 120 auf'm Tacho - ins Nirvana mit Karacho! Dm Dmsus4 Ich trinke schneller, als ich schlucken kann Dmsus2 Dm Ich will es wissen und die Nacht ist lang Bb Das wird teuer - Pillen, Pilze, Paranoia
F C Ich bin Dm F Immer auf der Suche nach 'ner guten Zeit, G Bb die Nacht ist lang und ich bin bereit. Dm F Immer auf der Suche nach 'ner guten Zeit, G Bb der Rest ergibt sich von allein. Dm F Immer auf der Suche nach 'ner guten Zeit G Bb Immer auf der Suche nach 'ner guten Zeit Dm F {Riff} (s.o.) Viel Speed, kein Ziel und immer im Kreis
Bridge - Wie Intro 1 - Dm Die Contenance verloren, Dmsus2 Die Synapsen eingefroren Dmsus4 Doch im Groxen und Ganzen - Dm Ich sag euch: Lasst uns tanzen!
Solo: 
   Dm                      Dmsus4               Dmsus2 
eb|13-13----13----13----13|---13-----13-13-----|-----------------------|---------------| 
Bb|-----------------------|--------------------|-----------------------|---------------| 
Gb|-----------------------|--------------------|12b14-12p10-12p10----10~~~~---------10-| 
Db|-----------------------|--------------------|------------------12---|---12-10-12----| 
Ab|-----------------------|--------------------|-----------------------|---------------| 
Db|-----------------------|--------------------|-----------------------|---------------| 
    

   Bb                      Bb                   Bb                       
eb|-----------------------|--------------------|------------------------------------------| 
Bb|-----------------------|--------------------|---13b15-----13-10----10------------------| 
Gb|10----10----10-10----10|---10---/13----13-13|-------------------12----12-10----------10| 
Db|-----------------------|--------------------|--------------------------------12-10-12--| 
Ab|-----------------------|--------------------|------------------------------------------| 
Db|-----------------------|--------------------|------------------------------------------| 
   
   Bb 
eb|-----------------------------------------------| 
Bb|-----------------------------------------------| 
Gb|12-10------------------------------------------| 
Db|------12-10------------------------------------| 
Ab|------------12-10-12-10--8-----------5---------| 
Db|-----------------------------------------------|  

   Dm                      Dmsus4                Dmsus2 
eb|-----------------------|---------------------|-----------------------|-----------------| 
Bb|---10-------10-10------|10-10--------------13b15-13-10-13-10---------|-----------------| 
Gb|---10-------10-10------|10-10----10----------|---------------12-10-12b14-10----12-12-10| 
Db|12-------12-------12---|------12-------------|-----------------------|------12---------| 
Ab|-----------------------|---------------------|-----------------------|-----------------| 
Db|-----------------------|---------------------|-----------------------|-----------------| 

   Bb                      Bb                 Bb                       
eb|15-15-15-15-13----13/15|---15----13----13-|---------10h13p10----10---------------------| 
Bb|-x--x--x--x--x-----x--x|----x-----x-----x-|13b15-------------13----13p10h13-10----10---| 
Gb|12-12-12-12-10----10/12|---12----10----10-|------------------------------------12----12| 
Db|-----------------------|------------------|--------------------------------------------| 
Ab|-----------------------|------------------|--------------------------------------------| 
Db|-----------------------|------------------|--------------------------------------------| 
    
   Bb 
eb|-----------------------------------------------| 
Bb|-----------------------------------------------| 
Gb|10h12p10---------------------------------------| 
Db|---------12p10---------------------------------| 
Ab|---------------12p10-----8-----------5---------| 
Db|-----------------------------------------------|  
F C Ich bin Dm F Immer auf der Suche nach 'ner guten Zeit, G Bb die Nacht ist lang und ich bin bereit. Dm F Immer auf der Suche nach 'ner guten Zeit, G Bb der Rest ergibt sich von allein. Dm F Immer auf der Suche nach 'ner guten Zeit G Bb Immer auf der Suche nach 'ner guten Zeit Dm F {Riff} (s.o.) Viel Speed, kein Ziel und immer im Kreis

Compartilhe esta música: novo

QR Code
Copiar