Judge Not

Bob Marley

Tom: F
F 
Don't you look at me so smug 
     Bb 
And say I'm going bad. 
F 
Who are you to judge me 
         C5 
And the life that I live? 
F 
I know that I'm not perfect 
      Bb 
And that I don't claim to be. 
      F 
So before you point your fingers, 
    C5                   F 
Be sure your hands are clean. 
       Bb 
Judge not 
 			F 
Before you judge yourself. 
        Bb 
Judge not 
	                    C5 
If you're not ready for judgement. Woah oh oh! 
F 
The road of life is rocking 
     Bb 
And you may stumble too. 
     F 
So while you talk about me, 
	 C5 		  F 
someone else is judging you. 
 
(solo de sax) (versão para violão) 
 
|-5-8-10-8----10-8-5---13-13-13-13-15-13 
|----------------------------------------- 
|----------------------------------------- 
 
|-8-10-8--5--------3-3-3-5-3-3--3 
|-----------8-6------------------- 
|--------------------------------- 
 
|-----1--8--5-3-1----1-1-1-3-1- 
|--5----------------3----------- 
|-5----------------------------- 
 
|--8--5----10-10--------------- 
|-----------------8---6-------- 
|-------------------9---------- 
 
	 
Judge not 
Before you judge yourself. 
Judge not 
If you're not ready for judgement. Woah oh oh! 
 
The road of life is rocking 
And you may stumble too 
So while you talk about me 
Someone else is judging you (?) 

Compartilhe esta música: novo

QR Code
Copiar