Could You Be LovedCifra Verificada

Bob Marley

Tom: Bm
  
 Introdução  


 e|----------------------------------------------------------|  
 B|----------------------------------------------------------|  
 G|----------------------------------------------------------|  
 D|----------------------------------------------------------|  
 A|--2-2-2-2-2-2-2-2-2-2-4-4-5-5-4-4-2-2-2-2-2-2-2-2-2-2-----|  
 E|----------------------------------------------------------|  



 e|----------------------------------------------------------|  
 B|----------------------------------------------------------|  
 G|----------------------------------------------------------|  
 D|----------------------------------------------------------|  
 A|-4-4-5-5-4-4-2-2-2-2-2-2-2-2-2-2-4-4-5-5-4-4-2-2-2-2-2-2-2|  
 E|----------------------------------------------------------|  



 e|----------------------------------------------------------|  
 B|----------------------------------------------------------|  
 G|----------------------------------------------------------|  
 D|----------------------------------------------------------|  
 A|--2-2-2-2-------------------------------------------------|  
 E|----------------------------------------------------------|  





 Refrão 1  



 e|----------------------------------------------------------|  
 B|----------------------------------------------------------|  
 G|----------------------------------------------------------|  
 D|----------------------------------------------------------|  
 A|-2-2-2-2-2-2-2-2-2-2-4-4-5-5-4-4-2-2-2-2-2-2-2-2-2-2------|  
 E|----------------------------------------------------------|  



 e|----------------------------------------------------------|  
 B|----------------------------------------------------------|  
 G|----------------------------------------------------------|  
 D|-------------------------------------4-4------------------|  
 A|-4-4-5-5-4-4-5-5-5-5-5-5-5-5-5-5-7-7-----7-7--------------|  
 E|----------------------------------------------------------|  

   


 e|----------------------------------------------------------|  
 B|----------------------------------------------------------|  
 G|----------------------------------------------------------|  
 D|----------------------------------------------------------|  
 A|-2-2-2-2-2-2-2-2-2-2-4-4-5-5-2-2--------------------------|  
 E|---------------------------------3-3-3-3-3-3-3-3-3-3-3-3--|  




 e|----------------------------------------------------------|  
 B|----------------------------------------------------------|  
 G|----------------------------------------------------------|  
 D|--------------------------------4-4-----------------------|  
 A|--------5-5-5-5-5-5-5-5-5-5-7-7----7-7-5-5-5-5-5-5-5-5-5-5|  
 E|3-3-3-3---------------------------------------------------|  




 e|----------------------------------------------------------|  
 B|----------------------------------------------------------|  
 G|----------------------------------------------------------|  
 D|-----4-4--------------------------------------------------|  
 A|-7-7-----7-7-2-2-2-2-2-2-2-2-2-2-4-4-5-5-2-2--------------|  
 E|----------------------------------------------------------|  



 e|----------------------------------------------------------|  
 B|----------------------------------------------------------|  
 G|----------------------------------------------------------|  
 D|----------------------------------------------------------|  
 A|---------------------------------5-5-5-5-5-5-5-5-5-5------|  
 E|-3-3-3-3-3-3-3-3-3-3-3-3-3-3-3-3--------------------------|  




 e|----------------------------------------------------------|  
 B|----------------------------------------------------------|  
 G|----------------------------------------------------------|  
 D|------4-4-------------------------------------------------|  
 A|--7-7-----7-7---------------------------------------------|  
 E|----------------------------------------------------------|  





 Verso 1  





 e|----------------------------------------------------------|  
 B|----------------------------------------------------------|  
 G|----------------------------------------------------------|  
 D|----------------------------------------------------------|  
 A|-2-2-2-2-2-2-2-2-2-2-4-4-5-5-4-4-2-2-2-2-2-2-2-2-2-2------|  
 E|----------------------------------------------------------|  



 e|----------------------------------------------------------|  
 B|----------------------------------------------------------|  
 G|----------------------------------------------------------|  
 D|----------------------------------------------------------|  
 A|-4-4-5-5-2-2-7-7-7-7-7-5-7-7-7-7-7-7-7-7-7-7-7-7-7-7-7----|  
 E|----------------------------------------------------------|  




 e|----------------------------------------------------------|  
 B|----------------------------------------------------------|  
 G|----------------------------------------------------------|  
 D|----------------------------------------------------------|  
 A|-5-7-7-7-7-7-5-7-5-----2-2-2-2-2-2-2-2-2-2-4-4-5-5-4-4----|  
 E|-------------------7-5------------------------------------|  




 e|----------------------------------------------------------|  
 B|----------------------------------------------------------|  
 G|----------------------------------------------------------|  
 D|----------------------------------------------------------|  
 A|-2-2-2-2-2-2-2-2-2-2-4-4-5-5-2-2-7-7-7-7-7-5-7-7-7-7-7----|  
 E|----------------------------------------------------------|  




 e|----------------------------------------------------------|  
 B|----------------------------------------------------------|  
 G|----------------------------------------------------------|  
 D|----------------------------------------------------------|  
 A|-5-7-5-7-7-5-7-7-5-7-7-5-7-5-----2-2-2-2-2-2-2-2-2-2------|  
 E|-----------------------------7-5--------------------------|  




 e|----------------------------------------------------------|  
 B|----------------------------------------------------------|  
 G|----------------------------------------------------------|  
 D|----------------------------------------------------------|  
 A|-4-4-5-5-4-4-2-2-2-2-2-2-2-2-2-2-4-4-5-5-2-2--------------|  
 E|----------------------------------------------------------|  




 e|----------------------------------------------------------|  
 B|----------------------------------------------------------|  
 G|----------------------------------------------------------|  
 D|----------------------------------------------------------|  
 A|-10-10-10-10-10-10-10-10-9-9-9-9-9-9-9-9-7-7-0-5-7-7-0----|  
 E|----------------------------------------------------------|  




 e|----------------------------------------------------------|  
 B|----------------------------------------------------------|  
 G|----------------------------------------------------------|  
 D|----------------------------------------------------------|  
 A|-5-7-7-0-5-7-5-----2-2-2-2-2-2-2-2-2-2-4-4-5-5-4-0--------|  
 E|---------------7-5----------------------------------------|  


   

 e|----------------------------------------------------------|  
 B|----------------------------------------------------------|  
 G|----------------------------------------------------------|  
 D|----------------------------------------------------------|  
 A|-2-2-2-2-2-2-2-2-2-2-4-4-5-5-2-2-10-10-10-10-10-10-10-10--|  
 E|----------------------------------------------------------|  




 e|----------------------------------------------------------|  
 B|----------------------------------------------------------|  
 G|----------------------------------------------------------|  
 D|----------------------------------------------------------|  
 A|-9-9-9-9-9-9-9-9------------------------------------------|  
 E|-----------------0-5-5-x-x-5-5-x-x-5-5-x-x-5-5------------|  





 Refrão 2 e 3  



 e|----------------------------------------------------------|  
 B|----------------------------------------------------------|  
 G|----------------------------------------------------------|  
 D|-------------------------4-4------------------------------|  
 A|-5-5-5-5-5-5-5-5-5-5-7-7-----7-7-2-2-2-2-2-2-2-2-2-2------|  
 E|----------------------------------------------------------|  

   


 e|----------------------------------------------------------|  
 B|----------------------------------------------------------|  
 G|----------------------------------------------------------|  
 D|----------------------------------------------------------|  
 A|-4-4-5-5-2-2----------------------------------------------|  
 E|-------------3-3-3-3-3-3-3-3-3-3-3-3-3-3-3-3--------------|  





 e|----------------------------------------------------------|  
 B|----------------------------------------------------------|  
 G|----------------------------------------------------------|  
 D|-------------------------4-4------------------------------|  
 A|-5-5-5-5-5-5-5-5-5-5-7-7-----7-7-5-5-5-5-5-5-5-5-5-5-7-7--|  
 E|----------------------------------------------------------|  

   



 e|----------------------------------------------------------|  
 B|----------------------------------------------------------|  
 G|----------------------------------------------------------|  
 D|-4-4------------------------------------------------------|  
 A|-----7-7-2-2-2-2-2-2-2-2-2-2-4-4-5-5-2-2------------------|  
 E|----------------------------------------------------------|  



 e|----------------------------------------------------------|  
 B|----------------------------------------------------------|  
 G|----------------------------------------------------------|  
 D|----------------------------------------------------------|  
 A|---------------------------------5-5-5-5-5-5-5-5-5-5------|  
 E|-3-3-3-3-3-3-3-3-3-3-3-3-3-3-3-3--------------------------|  




 e|----------------------------------------------------------|  
 B|----------------------------------------------------------|  
 G|----------------------------------------------------------|  
 D|-----4-4--------------------------------------------------|  
 A|-7-7-----7-7----------------------------------------------|  
 E|----------------------------------------------------------|  




 Interlúdio  




 e|----------------------------------------------------------|  
 B|----------------------------------------------------------|  
 G|----------------------------------------------------------|  
 D|----------------------------------------------------------|  
 A|-2-2-2-2-2-2-2-2-2-2-4-4-5-5-4-4-2-2-2-2-2-2-2-2-2-2-4-4--|  
 E|---------------------------------------------------------2|  




 e|----------------------------------------------------------|  
 B|----------------------------------------------------------|  
 G|----------------------------------------------------------|  
 D|----------------------------------------------------------|  
 A|-2-2-2-2-2-0-2-2-2-2-4-4-5-5-4-4-2-2-2-2-2-0-2-2-2-0------|  
 E|-----------------------------------------------------2-0-2|  




 e|----------------------------------------------------------|  
 B|----------------------------------------------------------|  
 G|----------------------------------------------------------|  
 D|----------------------------------------------------------|  
 A|-2-2-2-2-2-2-0-2-2-2-4-4-5-5-4-4-2-2-2-2-2-2-0-2-2-0------|  
 E|-----------------------------------------------------2-0-2|  



 e|----------------------------------------------------------|  
 B|----------------------------------------------------------|  
 G|----------------------------------------------------------|  
 D|----------------------------------------------------------|  
 A|-2-2-2-2-2-2-0-2-2-2-4-4-5-5-4-4-2-2-2-2-2-2-0-2-2-0------|  
 E|-----------------------------------------------------2-0-2|  




 e|----------------------------------------------------------|  
 B|----------------------------------------------------------|  
 G|----------------------------------------------------------|  
 D|----------------------------------------------------------|  
 A|-0-0-2-2-2-2-2-2-0-2-2-2-4-4-5-5-4-4-2-2-2-2-2-2-0-0-2-2-2|  
 E|----------------------------------------------------------|  




 e|----------------------------------------------------------|  
 B|----------------------------------------------------------|  
 G|----------------------------------------------------------|  
 D|----------------------------------------------------------|  
 A|0-----0-2-2-2-2-2-2-0-2-2-2-4-4-5-5-4-4-2-2-2-2-2-2-0-2-2-|  
 E|-2-0-2----------------------------------------------------|  




 e|----------------------------------------------------------|  
 B|----------------------------------------------------------|  
 G|----------------------------------------------------------|  
 D|----------------------------------------------------------|  
 A|--0-------------------------------------------------------|  
 E|----2-0-2-------------------------------------------------|  






 Verso 3  
   



 e|----------------------------------------------------------|  
 B|----------------------------------------------------------|  
 G|----------------------------------------------------------|  
 D|----------------------------------------------------------|  
 A|-2-2-2-2-2-2-2-2-2-2-4-4-5-5-4-4-2-2-2-2-2-2-2-2-2-2------|  
 E|----------------------------------------------------------|  




 e|----------------------------------------------------------|  
 B|----------------------------------------------------------|  
 G|----------------------------------------------------------|  
 D|----------------------------------------------------------|  
 A|-4-4-5-5-2-2---5-7-7-5-------7-7-0-7-5-------5-7-7-5------|  
 E|-------------7---------7-7-0-----------7-0-7--------------|  




 e|----------------------------------------------------------|  
 B|----------------------------------------------------------|  
 G|----------------------------------------------------------|  
 D|----------------------------------------------------------|  
 A|-------7-5-7-5-----2-2-2-2-2-2-2-2-2-2-4-4-5-5-4-4--------|  
 E|-7-x-x---------7-5----------------------------------------|  




 e|----------------------------------------------------------|  
 B|----------------------------------------------------------|  
 G|----------------------------------------------------------|  
 D|----------------------------------------------------------|  
 A|-2-2-2-2-2-2-2-2-2-2-4-4-5-5-2-2---5-x-7-7-5--------------|  
 E|---------------------------------7-----------7-7----------|  




 e|----------------------------------------------------------|  
 B|----------------------------------------------------------|  
 G|----------------------------------------------------------|  
 D|----------------------------------------------------------|  
 A|-x-7-7-5-7-5-------5-x-7-5---x-7-7-5-7-5------------------|  
 E|-------------7-x-7---------7-------------7-5--------------|  




 e|----------------------------------------------------------|  
 B|----------------------------------------------------------|  
 G|----------------------------------------------------------|  
 D|----------------------------------------------------------|  
 A|-2-2-2-2-2-2-2-2-2-2-4-4-5-5-4-4-2-2-2-2-2-2-2-2-2-2------|  
 E|----------------------------------------------------------|  




 e|----------------------------------------------------------|  
 B|----------------------------------------------------------|  
 G|----------------------------------------------------------|  
 D|----------------------------------------------------------|  
 A|-4-4-5-5-2-2-10-10-x-10-x----10-9-9-x-9-x---9-------------|  
 E|--------------------------10--------------9---------------|  



   

 e|----------------------------------------------------------|  
 B|----------------------------------------------------------|  
 G|----------------------------------------------------------|  
 D|----------------------------------------------------------|  
 A|-7-7-5-7-7-5-7-7-5-7-5-----2-2-2-2-2-2-2-2-2-2-4-4-5-5-4-4|  
 E|-----------------------7-5--------------------------------|  





 e|----------------------------------------------------------|  
 B|----------------------------------------------------------|  
 G|----------------------------------------------------------|  
 D|----------------------------------------------------------|  
 A|-2-2-2-2-2-2-2-2-2-2-4-4-5-5-2-2--------------------------|  
 E|----------------------------------------------------------|  


   

 e|----------------------------------------------------------|  
 B|----------------------------------------------------------|  
 G|----------------------------------------------------------|  
 D|----------------------------------------------------------|  
 A|-10-10----10-10---9-9---9-9-------------------------------|  
 E|-------10-------9-----9-----0-5-5-0-5-5-------------------|  




 e|----------------------------------------------------------|  
 B|----------------------------------------------------------|  
 G|----------------------------------------------------------|  
 D|----------------------------------------------------------|  
 A|---------------------------------------5------------------|  
 E|-0-5-5-0-5-5-0-5-5-0-5-5-0-5-5-0-5-5-x--------------------|  

Intro: Bm D Bm G Could you be loved D and be loved? Bm G Could you be loved D and be loved? Bm Em Don't let them fool you Bm Em or even try to school you, Oh, no! Bm We've got a mind of our own G Bm Em So go to hell if what you're thinking is not right Bm Love would never leave us alone. G F#m A In the darkness there must come out the light. D Bm G Could you be loved D and be loved? Bm G Could you be loved D and be loved? Bm Bm The road of life is rocky Bm Bm and you may stumble too. Bm Bm So while you point your fingers Bm Bm someone else is judging you. Bm Could you be, could you be, could you be loved? Bm Could you be, could you be loved? Bm Could you be, could you be, could you be loved? Bm Could you be, could you be loved? Em Don't let them change you, Bm Em or even rearrange you. Oh, no! Bm We've got a life to live G F#m Em Bm Uh.. Uh.. uh They say only, only, G F#m A only the fittest of the fittest shal survive, stay alive. D Bm G Could you be loved D and be loved? Bm G Could you be loved D and be loved? Bm You ain't gonna miss your water Bm until you well runs dry. Bm No matter how you treat him, Bm the man will never be satisfied. Bm Could you be, could you be, could you be loved? Bm Could you be, could you be loved? Say something... Say something... Say something... Say something...

Compartilhe esta música: novo

QR Code
Copiar