Tom: G
Intro C# 

     C# 
We sway 
D#m                           
Grabbed her by the hips and hand 
      A#m       F# 
Then off we went 
                   C# 
Across the sanded floor 
            D#m 
She said, that's not sand, it's salt 
             A#m                     F# 
It will get worn like we did before 

   C# 
I only wanna dance with you 
D#m 
Every time I try 
     A#m                F# 
We only get an hour or so 
      C# 
It's time to get personal 
D#m            
We've got these times of our lives 
A#m                            F# 
Let’s take this time to let it show 
                     C#  D#m  A#m  F# 
'Cause these are ours 
E|---------------------------------------------| 
B|----7--7--7--7--6--6--6--6--6--4--4--4--4/7--| 
G|---------------------------------------------| 
D|---------------------------------------------| 
A|---------------------------------------------| 
E|---------------------------------------------| 

E|---------------------------------------------| 
B|-7--7--7--7--6--6--6--6--6/2--2--2--2--2--2--| 
G|---------------------------------------------| 
D|---------------------------------------------| 
A|---------------------------------------------| 
E|---------------------------------------------| 

E|------------------------------1--1--1--------| 
B|------2--2--2--2--2--1--1--1-----------2-----| 
G|---------------------------------------------| 
D|---------------------------------------------| 
A|---------------------------------------------| 
E|---------------------------------------------| 
C# We sway D#m The moon shines down A#m And everybody's safe F# Christmas lights all day C# And rightly so D#m 'Cause we feel high as fuck A#m And everything is good F# Good to go C# I watch the snow fall down D#m Feels great to be honest A#m Forget about the trouble F# Forget about the drama C# 'Cause I ain't Casanova, baby D#m I can dance for days A#m But this time with you F# Is just amazing in so many ways C# I only wanna dance with you D#m Every time I try A#m F# We only get an hour or so C# It's time to get personal D#m We've got these times of our lives A#m F# Let’s take this time to let it show C# D#m A#m F# 'Cause these are ours
E|---------------------------------------------| 
B|----7--7--7--7--6--6--6--6--6--4--4--4--4/7--| 
G|---------------------------------------------| 
D|---------------------------------------------| 
A|---------------------------------------------| 
E|---------------------------------------------| 

E|---------------------------------------------| 
B|-7--7--7--7--6--6--6--6--6/2--2--2--2--2--2--| 
G|---------------------------------------------| 
D|---------------------------------------------| 
A|---------------------------------------------| 
E|---------------------------------------------| 

E|------------------------------1--1--1--------| 
B|------2--2--2--2--2--1--1--1-----------2-----| 
G|---------------------------------------------| 
D|---------------------------------------------| 
A|---------------------------------------------| 
E|---------------------------------------------| 
A#m G# We'll stay until we want to C# That's how we used to be F# And we never fell apart A#m G# And we’ll stay here until we want to C# Now we just sway (Come on, dance with me) ( C# D#m ) A#m F# (Dance with me) ( C# D#m ) A#m F# (Just dance with me) C# D#m A#m F# 'Cause these are ours ( C# D#m A#m F# )
E|---------------------------------------------| 
B|----7--7--7--7--6--6--6--6--6--4--4--4--4/7--| 
G|---------------------------------------------| 
D|---------------------------------------------| 
A|---------------------------------------------| 
E|---------------------------------------------| 

E|---------------------------------------------| 
B|-7--7--7--7--6--6--6--6--6/2--2--2--2--2--2--| 
G|---------------------------------------------| 
D|---------------------------------------------| 
A|---------------------------------------------| 
E|---------------------------------------------| 
C# We sway C# We sway

Compartilhe esta música: novo

QR Code
Copiar