Tom: F#m
Intro: F#m C#m F#m C#m Bm C#m Bm E F 
 
Riff: 
e|-----------------------------------| 
B|-----------------------------------| 
G|----------6-----4---6---7---4---6--| 
D|-----------------------------------| 
A|--4-4-4-4---4-4---4---4---4---4----| 
E|-----------------------------------| 
F#m C#m Ai que ninguém volta F#m C#m ao que já deixou Bm C#m ninguém larga a grande roda Bm E F ninguém sabe onde é que andou F#m C#m Ai que ninguém lembra F#m C#m nem o que sonhou Bm C#m (e) aquele menino canta Bm E F a cantiga do pastor F#m Ao largo C#m ainda arde F#m a barca C#m da fantasia Bm C#m e o meu sonho acaba tarde Bm E F deixa a alma de vigia F#m Ao largo C#m ainda arde F#m a barca C#m da fantasia Bm C#m e o meu sonho acaba tarde Bm E F acordar é que eu não queria. Solo 2x: F#m C#m F#m C#m D C#m D E F
 
e|------------------------------------------------------------------| 
B|------------------------------------------------------------------| 
G|------------------------------------------------------------------| 
D|------------------------------------------------------------------| 
A|------------------------------------------------------------------| 
E|--5-5-4-4-2-2-4-4-5-5-4-4-2-2-4-4-5-5-4-4-2-2-4-4-5-5-4-4-2-2-4-4-| 

e|------------------------------------------------------------------| 
B|------------------------------------------------------------------| 
G|------------------------------------------------------------------| 
D|------------------------------------------------------------------| 
A|--2-2-------------2-2-------------2-2-------------2-2-------------| 
E|------5-5-4-4-5-5-----5-5-4-4-5-5-----5-5-4-4-5-5-----5-5-4-4-5-5-| 

e|------------------------------------------------------------------| 
B|------------------------------------------------------------------| 
G|------------------------------------------------------------------| 
D|------------------------------------------------------------------| 
A|--4-4-2-2-----2-2-4-4-2-2-----2-2-4-4-2-2-----2-2-4-4-2-2-----2-2-| 
E|----------5-5-------------5-5-------------5-5-------------5-5-----| 

e|------------------------------------------------------------------| 
B|------------------------------------------------------------------| 
G|------------------------------------------------------------------| 
D|------------------------------------------------------------------| 
A|--5-5-4-4-2-2-4-4-5-5-4-4-2-2-4-4-5-5-4-4-2-2-4-4-5-5-4-4-2-2-4-4-| 
E|------------------------------------------------------------------| 

e|------------------------------------------------------------------| 
B|------------------------------------------------------------------| 
G|------------------------------------------------------------------| 
D|--2-2-----------------------------2-2-----------------------------| 
A|------5-5-4-4-2-2---------------------5-5-4-4-2-2-----------------| 
E|------------------5-5-4-4-2-2-0-0-----------------5-5-4-4-2-2-0-0-| 

e|------------------------------------------------------------------| 
B|------------------------------------------------------------------| 
G|------------------------------------------------------------------| 
D|--2-2-----------------------------2-2-----------------------------| 
A|------5-5-4-4-2-2---------------------5-5-4-4-2-2-----------------| 
E|------------------5-5-4-4-2-2-0-0-----------------5-5-4-4-2-2-0-0-| 

e|------------------------------------------------------------------| 
B|------------------------------------------------------------------| 
G|------------------------------------------------------------------| 
D|--2-2-----------------------------2-2-----------------------------| 
A|------5-5-4-4-2-2---------------------5-5-4-4-2-2-----------------| 
E|------------------5-5-4-4-2-2-0-0-----------------5-5-4-4-2-2-0-0-| 

e|----------------------------------------------------------------------------------| 
B|----------------------------------------------------------------------------------| 
G|----------------------------------------------------------------------------------| 
D|--------------------------------------------------------------2-2---------2-2-4-4-| 
A|--------------2-2---------2-2-4-4-----2-2-4-4-5-5-2-2-4-4-5-5-----4-4-5-5---------| 
E|--2-2-4-4-5-5-----4-4-5-5---------5-5---------------------------------------------| 

e|-----------------------------| 
B|-----------------------------| 
G|-----------------------------| 
D|--4-----4--4--4----4*--------| 
A|--4-----4--4--4----4---------| 
E|--2-----2--2--2----2---------| 
F#m Ao largo C#m ainda arde F#m a barca C#m da fantasia Bm C#m e o meu sonho acaba tarde Bm E F deixa a alma de vigia F#m Ao largo C#m ainda arde F#m a barca C#m da fantasia Bm C#m e o meu sonho acaba tarde Bm E F acordar é que eu não queria. Final: F#m C#m F#m C#m Não ninguém Voltou Bm D C#m Bm C#m F#m F Jamais ( Bm E F F#m )

Compartilhe esta música: novo

QR Code
Copiar