Te Llevaré

Beto Fernán

Tom: G#
INTRO 

e --6----8-9-8-6----------6-------------6----8-9-8-6----------6----------- 
B ---------------9----8-9---9-8-6--------------------9----8-9---9-8-6----- 
G ------------------------------------------------------------------------ 
D ------------------------------------------------------------------------ 
A ------------------------------------------------------------------------ 
E ------------------------------------------------------------------------ 
G# Fm G# Fm C Te llevaré .... y tu vendrás Bbm G# Fm G C7 Fm te llevaré muchacha hacia mi tierra natal Bbm G# Fm G C7 Fm te llevaré muchacha hacia mi tierra natal G# Fm G# Fm C allí verás ... como el amor Bbm G# Fm G C7 Fm alegrará tus ojos, encantará el corazón Bbm G# Fm G C7 Fm alegrará tus ojos, encantará el corazón. Bbm C# G# Te asombrarás que lindo es ver Bbm C# Bbm C# C C-Bbm-G#-G el mar azul tendido a tus pies. G# Fm G# Fm C Te llevaré .... y tu vendrás Bbm G# Fm G C7 Fm te llevaré muchacha hacia mi tierra natal Bbm G# Fm G C7 Fm te llevaré muchacha hacia mi tierra natal
INTRO 

e --6----8-9-8-6----------6-------------6----8-9-8-6----------6----------- 
B ---------------9----8-9---9-8-6--------------------9----8-9---9-8-6----- 
G ------------------------------------------------------------------------ 
D ------------------------------------------------------------------------ 
A ------------------------------------------------------------------------ 
E ------------------------------------------------------------------------ 
Bbm C# G# Te asombrarás que lindo es ver Bbm C# Bbm C# C C-Bbm-G#-G el mar azul tendido a tus pies. G# Fm G# Fm C Te llevaré .... y tu vendrás Bbm G# Fm G C7 Fm te llevaré muchacha hacia mi tierra natal Bbm G# Fm G C7 Fm te llevaré muchacha hacia mi tierra natal Bbm G# Fm G C7 Fm te llevaré muchacha hacia mi tierra natal Bbm G# Fm Gm C Fm te llevaré muchacha hacia mi tierra natal Bbm G# Fm Gm C Fm te llevaré muchacha hacia mi tierra natal

Compartilhe esta música: novo

QR Code
Copiar