The Fox In The Snow

Belle and Sebastian

Tom: Am
Capotraste na 1ª casa
 
 
  Am                          Am*                            C 
e|-0---------0---------0-----|--8---------8---------8-------|-0---------0----------0--------| 
B|-------1---------1---------|--------6---------6-----------|-------1---------1(3)----------| 
G|----2---------2---------2--|-----5---------5----------5---|----0---------0----------0-----| 
D|---------------------------|------------------------------|-------------------------------| 
A|-0---------0---------0-----|--0---------0---------0-------|-3---------3----------3--------| 
E|---------------------------|-(5)-------(5)-------(5)------|-------------------------------| 

 Fmaj7      (3)        (1)       G                           E 
e|-0---------0----------0-------|-3---------3---------3-----|-4---------4---------4---------| 
B|-------1----------1-----------|-------3---------3---------|-------5---------5-------------| 
G|----2----------2----------2---|----0---------0---------0--|----4---------4---------5------| 
D|(3)-------(3)--------(3)------|---------------------------|-------------------------------| 
A|------------------------------|---------------------------|-------------------------------| 
E|-1---------1----------1-------|-3---------3---------3-----|-4---------4---------4---------| 

  E*                             Em                          D 
e|-4---------5----------7-------|-0---------0---------0-----|-2---------2---------2---------| 
B|-------5----------5-----------|-------0---------0---------|-------3---------3-------------| 
G|----4----------4-----(4)--4---|----0---------0---------0--|----2---------2---------2------| 
D|------------------------------|---------------------------|-0---------0---------0---------| 
A|------------------------------|(2)-------(2)-------(2)----|-------------------------------| 
E|-4---------4----------4-------|-0---------0---------0-----|(2)-------(2)-------(2)--------| 


Solo: 

e|----------------------------------------------------------------------------------| 
B|----------------------------------------------------------------------------------| 
G|--------------------------4-5-4---------------------------------------------------| 
D|------5--5-----5--7----7--------7-5--7--5--7--------------------------------------| 
A|---7-------7----------------------------------3--5--7-----------------------------| 
E|----------------------------------------------------------------------------------| 

e|----------------------------------------------------------------------------------| 
B|----------------------------------------------------------------------------------| 
G|--------------------------4-5-4---------------------------------------------------| 
D|------5--5-----5h7----7---------7-5--7--5--7--------------------------------------| 
A|---7-------7----------------------------------3--5--7-----7-7-8--7--5---7--5--3---| 
E|----------------------------------------------------------------------------------| 
Intro: strum C C G Am Fox in the snow, where do you go to find something you could eat? Fmaj7 G Cause the word out on the street is that you're starving. C E Am Don't let yourself go hungry now. Don't let yourself grow cold. Fmaj7 C Fmaj7 C Fox in the Snow. C G Fmaj7 Am Girl in the snow, where do you go to find someone who will do? Fmaj7 G To tell someone all the truth before it kills you. C E* Am* They listen to your crazy laugh, before you hang a right Fmaj7 C Fmaj7 And disappear from sight. C What do they know anyway? Fmaj7 You'll read it in a book. C What do they know anyway? Em D You'll read it in a book tonight. Fmaj7 x 4 C G Am Boy on the bike, what are you like as you cycle round the town? Fmaj7 G You're going up you're going down you're going nowhere. C E* Am* It's not as if they're paying you. It's not as if it's fun. Fmaj7 C Fmaj7 At least not anymore. C When your legs are black and blue. Fmaj7 It's time to take a break. C When your legs are black and blue. Solo It's time to take a holiday Fmaj7 C x4 C G Am Kid in the snow, way to go it only happens once a year. Fmaj7 G It only happens once a lifetime, make the most of it. C E* Am* Second just to being born. Second to dying too. Fmaj7 C What else would you do? Fmaj7 C What else would you do? Fmaj7 C What else would you do? Fmaj7 C What else would you do? Fmaj7 C Fox in the snow (When your legs are black and blue) Fmaj7 C Fox in the snow (It's not as if they're paying you) Fmaj7 C Fox in the snow (When your legs are black and blue) Fmaj7 C Fox in the snow (It's not as if they're paying you) Fmaj7 C Fox in the Snow Fmaj7 C Fox in the Snow

Compartilhe esta música: novo

QR Code
Copiar