Irreparable

BBS Paranoicos

Tom: A
Intro 
    |-----------------|    |-------------|      
    |-----------------|    |-------------|      
    |-----------------|    |-------------|      
    |-7-7-7-7-7-7-5h7-|x7  |-------------|      
    |-7-7-7-7-7-7-5h7-|    |-------2--3--|      
    |-5-5-5-5-5-5-----|    |-1--5--------|      
A F C Con estas palabras dijo adiós C#/D D no me volverás a ver F C G creo que esto es lo mejor, y entiendo A F C Todo lo que me dijiste ayer C#/D D pero no mi corazón F C E el no acepta explicación, y es cierto F G A G Esa noche algo se rompió no se puede reparrar F G A G culpame y yo a ti pero estaba escrito así F G A G y si buscas un culpable el destino es el autor F G el fue quien me traiciono Riff del Intro C G Que triste final puedo haber sido mejor A G F G A triste terminar puteandonos una vez mas C G triste recordar y tener que olvidar A G F G A triste verte y no poderte abrazar F G A triste que te importe nada F G A triste estar tan triste una vez mas Intro F G A G Esa noche algo se rompió no se puede reparrar F G A G culpame y yo a ti pero estaba escrito así F G A G y si buscas un culpable el destino es el autor F G el fue quien me traiciono Riff del Intro C G Que triste final puedo haber sido mejor A G F G A triste terminar puteandonos una vez mas C G triste recordar y tener que olvidar A G F G A triste verte y no poderte abrazar F G A triste que te importe nada F G A triste estar tan triste una vez mas Todos los acordes son quintas y va en escala de la Menor
   A  F  C  C#/D  D  G  E 
    |--2-----5--------7------------|      
    |--2--3--5---7----7--5--2------|      
    |--0--3--3---4----5--5--2------|      
    |-----1--------------3--0------|    

Compartilhe esta música: novo

QR Code
Copiar