Esperando Un Adiós

BBS Paranoicos

Tom: Am

Intro 
   Am  G  Dm   C 
e------------------------------| 
B------------------------------| 
G---5-----4------7------5------|
D---7-----5------5------3------| 
A------------------------------| 
E------------------------------| 
Am G Dm C En algun lugar Am G Dm C se que aun estas ahi Am G Dm C se que escucharas Am G Dm C aunque sea tarde para mi. Coro: Am G F Yo se, Am G F no soy bueno expresandome, Am G F palabras, Am G F nunca supe ocuparlas bien. Verso: Am G C F Hoy lo intentare, Am G C F aunque no se para que, Am G C F que conseguire, Am G C F si el tiempo nunca vuelve atras Coro: Pero yo un minuto te pedia, nada mas, y eso siempre te dio igual. Mientras yo aqui pudriendome, telefono en mano sin saber que hacer, corazon clavado a tus huesos, dame una copa por cada desilucion. F G Am C Eres tu, F Em sabes que te estoy hablando a ti, F G Am C aqui estoy, F Em sigo esperando un adios, F G Am C otra vez F Em nada resulto como en mi plan F G Am C eres tu F Em sabes que te estoy hablando a ti Am C Dm Em
Solo                                                       X4 
e-----------------------------------------------------------| 
B----------5---------------5--------5-6/8-6-5---------------| 
G-----5------7-5-----5-------7-5-----------------4---5------| 
D---7---7----------7---7-----------------------6---6---4----| 
A--------------------------------------------------------6--| 
E-----------------------------------------------------------| 
F G Am En algun lugar se que estas ahi F G Am se que escucharas aunque sea tarde. (x2) F G Am En algun lugar F G Am en algun lugar F G Am C Eres tu, F Em sabes que te estoy hablando a ti, F G Am C aqui estoy, F Em sigo esperando un adios, F G Am C otra vez F Em nada resulto como en mi plan F G Am C eres tu F Em sabes que te estoy hablando a ti Am C F Em A ti Am C F Em Am A ti

Compartilhe esta música: novo

QR Code
Copiar