This Is Me

Barbie

Tom: G
Intro G  C9  D 
        G  C9  D 

Tab - Intro 

Parte 1 de 2 
   G           C9          D 
E|------3--x--------3--x--------2--x---------0h2------| 
B|------3--x--------3--x--------3--x--------------3---| 
G|----0----x------0----x------2----x------2---------2-| 
D|---------x-----------x---0-------x---0--------------| 
A|---------x---3-------x-----------x------------------| 
E|-3-------x-----------x-----------x------------------|
Parte 2 de 2 
   G           C9          D 
E|------3--x--------3--x--------2--x---------0h2------| 
B|------3--x--------3--x--------3--x--------------3---| 
G|----0----x------0----x------2----x------2---------2-| 
D|---------x-----------x---0-------x---0--------------| 
A|---------x---3-------x-----------x------------------| 
E|-3-------x-----------x-----------x------------------|
Primeira Parte
Tab - Dedilhado Primeira Parte 

Parte 1 de 3 
   G           C9          D 
E|------3--x--------3--x--------2--x---------0h2------| 
B|------3--x--------3--x--------3--x--------------3---| 
G|----0----x------0----x------2----x------2---------2-| 
D|---------x-----------x---0-------x---0--------------| 
A|---------x---3-------x-----------x------------------| 
E|-3-------x-----------x-----------x------------------|
Parte 2 de 3 
   G           C9          D 
E|------3--x--------3--x--------2--x---------0h2------| 
B|------3--x--------3--x--------3--x--------------3---| 
G|----0----x------0----x------2----x------2---------2-| 
D|---------x-----------x---0-------x---0--------------| 
A|---------x---3-------x-----------x------------------| 
E|-3-------x-----------x-----------x------------------|
Parte 3 de 3 
   G           C9          D 
E|------3--x--------3--x--------2--x---------0h2------| 
B|------3--x--------3--x--------3--x--------------3---| 
G|----0----x------0----x------2----x------2---------2-| 
D|---------x-----------x---0-------x---0--------------| 
A|---------x---3-------x-----------x------------------| 
E|-3-------x-----------x-----------x------------------|
G C9 D Everyone has got a secret side G C9 A wonding path that's through D A door that's open wide G C9 You think you know me D But I'm changing all the time Pré-Refrão G C9 'Cause if I wanna be sweet G If I wanna be wild D G If I wanna cry like a child C9 If I pick up the world G In the palm of my hand C9 D I guess that's just who I am Refrão C9 D This is me, can't ignore it C9 D Reaching out, breaking free C9 D Constantly falling forward C9 D Yeah, I'm just going for it This is me Segunda Parte G C9 D Sometimes life is a confusing thing G C9 D When I talk it seems like no one's listening G C9 D Try to be an angel, but I just can't find my wings
Tab - Dedilhado Segunda Parte 

Parte 1 de 3 
   G           C9          D 
E|------3--x--------3--x--------2--x---------0h2------| 
B|------3--x--------3--x--------3--x--------------3---| 
G|----0----x------0----x------2----x------2---------2-| 
D|---------x-----------x---0-------x---0--------------| 
A|---------x---3-------x-----------x------------------| 
E|-3-------x-----------x-----------x------------------|
Parte 2 de 3 
   G           C9          D 
E|------3--x--------3--x--------2--x---------0h2------| 
B|------3--x--------3--x--------3--x--------------3---| 
G|----0----x------0----x------2----x------2---------2-| 
D|---------x-----------x---0-------x---0--------------| 
A|---------x---3-------x-----------x------------------| 
E|-3-------x-----------x-----------x------------------|
Parte 3 de 3 
   G           C9          D 
E|------3--x--------3--x--------2--x---------0h2------| 
B|------3--x--------3--x--------3--x--------------3---| 
G|----0----x------0----x------2----x------2---------2-| 
D|---------x-----------x---0-------x---0--------------| 
A|---------x---3-------x-----------x------------------| 
E|-3-------x-----------x-----------x------------------|
Pré-Refrão G C9 'Cause I wanna be sweet G But I wanna be wild D G And I wanna find my own style C9 G So I make a mistake, then I do it again C9 D But I do it the best that I can Refrão C9 D This is me, can't ignore it C9 D Reaching out, breaking free C9 D Constantly falling forward C9 D Yeah, I'm just going for it Em This is me Ponte C9 Em More than what you see C9 Em D Finding out who I can be Solo G C9 G D Refrão Final C9 D This is me, can't ignore it C9 D Reaching out, breaking free C9 D Constantly falling forward C9 D Yeah, I'm just going for it This is me C9 D Can't ignore it C9 D Reaching out, breaking free C9 D Constantly falling forward C9 D Yeah, I'm just going for it C9 This is me D C9 Can't ignore it D Breaking free C9 D Falling forward C9 D Yeah, I'm just going for it This is me Final C9 G C9 D C9 G C9 D G

Compartilhe esta música: novo

QR Code
Copiar