Poperô

Banda Uó

Tom: Em
Em7                       Am7       D 
E|0---10--7--3--0------------0---8--7--3--5------------------| 
B|-----------------------------------------------------------| 
G|-----7--4--0-------------------5--4--0--2------------------| 
D|2-------------2------------2-------------------------------| 
A|-----------------------------------------------------------| 
E|-----------------------------------------------------------| 
Em D Am Vim pra dançar, aí você apareceu Em D Am No baile, ninguém é de ninguém Am Hoje, eu sou seu Em D De tênis novo pra brilhar Am Você alucina ao passar Em D Eu piro no seu jeito, vai Am Am7 Oh baby, isso é demais Em D Na night, o poperô rola solto Am O laser bate e ilumina o seu rosto Am7 Eu quero sentir o gosto do suor do seu corpo Em D Na night, o DJ solta as melhores Am O megamix toca e a fumaça sobe Em D Eu quero sentir o gosto desse amor que é só love
       Em7                        Am7       D 
E|0---10--7--3--0------------0---8--7--3--5------------------| 
B|-----------------------------------------------------------| 
G|-----7--4--0-------------------5--4--0--2------------------| 
D|2-------------2------------2-------------------------------| 
A|-----------------------------------------------------------| 
E|-----------------------------------------------------------| 
Em D Um lance é um lance Am Com você tudo mudou Em D Am Sua boca louca pede beijo sem pudor Em Miami é logo alí D Am E eu vou te fazer tão feliz Em D Cola na minha aqui e vai Am Am7 Oh baby, isso é demais Em D Na night, o poperô rola solto Am O laser bate e ilumina o seu rosto Am7 Eu quero sentir o gosto do suor do seu corpo Em D Na night, o DJ solta as melhores Am O megamix toca e a fumaça sobe Em D Eu quero sentir o gosto desse amor que é só love Em Me amarro num carinho D Adoro o seu jeitinho Am Em D Em Entre nós tá faltando acontecer (Solo Sax) Em D Am Em D Em D Na night, o poperô rola solto Am O laser bate e ilumina o seu rosto Am7 Eu quero sentir o gosto do suor do seu corpo Em D Na night, o DJ solta as melhores Am O megamix toca e a fumaça sobe Em D Em7 Eu quero sentir o gosto desse amor que é só love

Compartilhe esta música: novo

QR Code
Copiar