Mensageiro Do Louvor

Banda Mensageiros do Louvor

Tom: C
		 
Intro: C  Am  F  G (2x)

C             Am 
Senhor eu perdi muito tempo 
Dm           G 
Sem ti, sem ti 
C       A9                 Dm 
Tantas vezes rejeitei teu chamado 
G                        C 
Enquanto poderia te servir 
       Am 
Agora estas em mim 
    Dm 
Perdoaste os meus pecados 
    G                C 
E me deste a salvação 
      Am               Dm 
Escolheste-me entre muitos 
         G                  C 
Quero permanecer fiel até o fim 
              Am              Dm 
Já que encontrei teu caminho 
      F             G                 F       G 
Quero ser um Mensageiro do Louvor Senhor 

Refrão: 
  Am              F 
Aceitou-me, como sou 
        G               Am  ( F   G ) 
Quanto amor por mim provou 
Am              F 
Eu serei um verdadeiro adorador 
     G 
E mostrarei que serei 
         Am             ( F  G ) 
Um Mensageiro do Louvor 

Solo: 
e|-------------------------------10-------------10----------------------------| 
B|-------10-12~13~10------10-12~13-12--10-12-13-----13-12-10/12-10--------17--| 
G|---9-11-------------9-11------------------------------------------12-9------| 
D|----------------------------------------------------------------------------| 
A|----------------------------------------------------------------------------| 
E|----------------------------------------------------------------------------| 

e|-------------------------------10-------------10----------------------------| 
B|-------10-12~13~10------10-12~13-12--10-12-13-----13-12-10/12-10------------| 
G|---9-11-------------9-11----------------------------------------------------| 
D|----------------------------------------------------------------------------| 
A|----------------------------------------------------------------------------| 
E|----------------------------------------------------------------------------| 

e|--13-12-10-12-10----10------------------------------------------------------| 
B|-----------------13----13-12-13-12-10-12-10---------------------------------| 
G|--------------------------------------------12-10-9-------------------------| 
D|----------------------------------------------------------------------------| 
A|----------------------------------------------------------------------------| 
E|----------------------------------------------------------------------------| 
C Am Dm Eu te aceitei e ganhei a salvação G C E breve, estarei, na glória Am Dm G Junto com os anjos declarando: C Am Dm G C Santo, santo, santo é o Senhor dos exércitos Am Dm Santo, Santo... F G ( C4 C G ) Aquele que nos fez: C Mensageiros do Louvor

Compartilhe esta música: novo

QR Code
Copiar