To Caindo Fora

Banda Legal

Tom: G
Intro:C G F G C 


E|-------------------------------------------- 
B|-------------------------------------------- 
G|-------------------------------------------- 
D|--0h2-0----5/7-5---0h2-0---0-------5/7------ 
A|--------3----------------3----3-2----------- 
E|-------------------------------------------- 



E|-------------------1-1-0-------------------- 
B|--1/3-1-0-1-0------------3-3-3-1-0-1-------- 
G|--2/4-2-0-2-0--2---2-2-0-------------------- 
D|---------------3---------3-3-3-2-0-2-------- 
A|-------------------------------------------- 
E|-------------------------------------------- 
C As vezes eu paro pra pensar G que esta acontecendo com a gente F Ja não sei o que fazer C Ja não sei o que pensar G F G C G7 Hoje eu vou partir pra nunca mais voltar C G To caindo fora, to desistindo de você F G C G To procurando alguem que não me faz sofrer C G To querendo ser feliz e vou tentar te esquecer F G C G7 Por favor torça por mim que eu torço por você

Compartilhe esta música: novo

QR Code
Copiar